Billy Talent - Prisoner Of Today Chords & Tabs

 

Prisoner Of Today Chords & Tabs

Billy Talent Chords & Tabs

Version: 1 Type: Tab 0 ratings
1 star 2 stars 3 stars 4 stars 5 stars
comments

Prisoner Of Today Tab

Drop D Tuning

Intro and chorus

E|-------------------------------------------------------|
B|-------------------------------------------------------|
G|----8---7----5------5--5--5--7----5----3------3--3--3--|
D|--5--5-5--5-5--5-5-8--7--5--3--3-3--3-3--3-3-7--5--3---|
A|-------------------------------------------------------|
D|-------------------------------------------------------|

E|-------------------------------------------------------|
B|-------------------------------------------------------|
G|--2-2-2-5-5-2-5-5-2-5-5-2-5^-2-2-2-5-5-2-5-5-2-5-5-2-5-|
D|--0-0-0-0-0-0-0-0-0-0-0-0-0--3-3-3-3-3-3-3-3-3-3-3-3-3-|
A|-------------------------------------------------------|
D|-------------------------------------------------------|

E|------------------------------------------------------------------|
B|--8-8-8-7-7-7-5-5-5-3-3-3-2-2-0--7-7-7-5-5-5-3-3-3-2-2-2-0-0------|
G|--5-5-5-5-5-5-5-5-5-5-5-5-5-5-5--3-3-3-3-3-3-3-3-3-3-3-3-3-3-3----|
D|------------------------------------------------------------------|
A|------------------------------------------------------------------|
D|------------------------------------------------------------------|

E|-------------------------------------------------------|
B|-------------------------------------------------------|
G|--2-2-2-5-5-2-5-5-2-5-5-2-5^-2-2-2-5-5-2-5-5-2-5-5-2-5-|  
D|--0-0-0-0-0-0-0-0-0-0-0-0-0--3-3-3-3-3-3-3-3-3-3-3-3-3-|
A|-------------------------------------------------------|
D|-------------------------------------------------------|
[ Tab from: http://www.guitartabs.cc/tabs/b/billy_talent/prisoner_of_today_tab.html ]
----------------------------------------------------------------------------
VERSE 1
E|-------------------------------------------------------|
B|-------------------------------------------------------|
G|-------------------------------------------------------|
D|--55---3333---1111---3333---5555---3333---1111---3333--|
A|--55---3355---3355---3355---3355---3355---3355---3355--|
D|--55---3333---1111---3333---5555---3333---1111---3333--|


E|---------------55------33------55-|
B|-------88------44------33------44-|
G|-------77------55------33------55-|
D|--5555-88-3333----1111----3333----|
A|--3355----3355----3355----3355----|
D|--5555----3333----1111----3333----|


CHORUS (only picking)


E|---------------55------33------55-|
B|-------88------44------33------44-|
G|-------77-------------------------|
D|--5555----3333----1111----3333----|
A|--3355----3355----3355----3355----|
D|--5555----3333----1111----3333----|


VERSE 2

CHORUS (1x picking and 2x down pick)


BRIDGE
E|-33--33--3--11--11--1---------------------------------|
B|-44--44--4--33--33--3--55--55--5----------------------|
G|-55--55--5--33--33--3--77--77--7--88--88--8-----------|
D|-55--55--5--33--33--3--77--77--7--55--55--5-----------| 3X
A|-----------------------55--55--5--66--66--6-----------|
D|------------------------------------------------------|

E|-33--33--3--11--11--1-------------------------------|
B|-44--44--4--33--33--3--55--55--5--------------------|
G|-55--55--5--33--33--3--77--77--7--88--88--88888888--|
D|-55--55--5--33--33--3--77--77--7--55--55--55555555--| 
A|-----------------------55--55--5--66--66--66666666--|
D|----------------------------------------------------|

E|-33333333-11111111--------------------|
B|-44444444-33333333-55555555-----------|
G|-55555555-33333333-77777777-88888888--|
D|-55555555-33333333-77777777-55555555--|2X
A|-------------------55555555-66666666--|
D|--------------------------------------|

CHORUS (2X picking and 4X down picking)

END
E|---------|
B|------88-|
G|------77-|
D|--55--88-|
A|--55-----|
D|--55-----|

Have fun :)
GabQc
Comments