Billy Talent - Living In The Shadows Chords & Tabs

 

Living In The Shadows Chords & Tabs

Billy Talent Chords & Tabs

Version: 2 Type: Tab 0 ratings
1 star 2 stars 3 stars 4 stars 5 stars
comments

Living In The Shadows Tab

   
Song: Living in the shadows
Artist: Billy Talent

I am 100% sure this is all right.
The tuning is drop D

Intro

---------------------------------------------------------------|
1010101010101010-8-8-8-8-8-8-8-8-101010101010------------------|
-7-7-7-7-7-7-7-7-6-6-6-6-6-6-6-6-101010101010------------------|
-x-x-x-x-x-x-x-x-x-x-x-x-x-x-x-x-121212121212-8-5-7-0--0--0--0-|
-8-8-8-8-8-8-8-8-7-7-7-7-7-7-7-7-121212121212-8-5-7-0--0--0--0-|
----------------------------------------------8-5-7-0--0--0--0-|


1010101010101010-9-9-9-9-9-9-9-9-101010101010-------------------|
1010101010101010-8-8-8-8-8-8-8-8-101010101010-------------------|
-7-7-7-7-7-7-7-7-6-6-6-6-6-6-6-6-101010101010-------------------|
-x-x-x-x-x-x-x-x-x-x-x-x-x-x-x-x-121212121212-8-5-7-0--0--0--0--|
-8-8-8-8-8-8-8-8-7-7-7-7-7-7-7-7-121212121212-8-5-7-0--0--0--0--|
----------------------------------------------8-5-7-0--0--0--0--|


Play this x2

Verse
[ Tab from: http://www.guitartabs.cc/tabs/b/billy_talent/living_in_the_shadows_tab_ver_2.html ]
--------------------------------------------------------------|
10---------------8---------------10---------------------------|
-7---------------6---------------10---------------------------|
-x---------------x---------------12----------8-5-7-0--0--0--0-|
-8---------------7---------------12----------8-5-7-0--0--0--0-|
---------------------------------------------8-5-7-0--0--0--0-|
Can't stand quick fixes......

Play this X3 then play 1st half of intro x1


Chorus

--------------------------------------------------------------|
--------------------------------------------------------------|
--------------------------------------------------------------|
-3---3-3---3-----5---5---5---5---x-8-8-8-8-8-8-8-8-0----x-0---|
-3---3-3---3-----5---5---5---5---x-8-8-8-8-8-8-8-8-0----x-0---|
-3---3-3---3-----5---5---5---5---x-8-8-8-8-8-8-8-8-0----x-0---|
Don't you tell me........

Play this x4


Middle 8
Same pattern but with these chords:
  Dm                        Cmaj           Fmaj          Cmaj
-5-6--5-5--5-5--5-5--5-5-5------------------------------------|
-6-6--6-6--6-6--6-6--6-6-6------------------------------------|
-7-7--7-7--7-7--7-7--7-7-7------------------------------------|
-7-7--7-7--7-7--7-7--7-7-7------------------------------------|
--------------------------------------------------------------|
--------------------------------------------------------------|

END
Comments