Billy Talent - Line And Sinker Chords & Tabs

 

Line And Sinker Chords & Tabs

Billy Talent Chords & Tabs

Version: 3 Type: Tab 0 ratings
1 star 2 stars 3 stars 4 stars 5 stars
comments

Line And Sinker Tab

   
-------------------------------------------------------------------------------
LINE AND SINKER - BILLY TALENT
-------------------------------------------------------------------------------
Tabbed by: Barry Miles
Email: shoebox_of_lies@hotmail.com

Tuning: Drop D (DADGBe)

This is a great song. For the verse, I know you can just stay near the top of the
neck, but I just tabbed it how Ian D'Sa (the guitarist) plays it. Why does he make
life harder for himself? Probably 'cause it looks cooler, and to eliminate the sound
of an open string.

Chorus:

e|---------------------------------------------------------------------------|
B|---------------------------------------------------------------------------|
G|-----------------------------------------------------2-2-2-2-2-2-2-2-2-2-2-|
D|---(no chords)----------------4-4-4-4-4-4-4-4-4-4-4--2-2-2-2-2-2-2-2-4-2-0-|
A|------------------------------4-4-4-4-4-4-4-4-4-4-4--0-0-0-0-0-0-0-0-0-0-0-|
E|------------------------------4-4-4-4-4-4-4-4-4-4-4------------------------|

  WHAT YOU SEE IS WHAT YOU GET! Fishin' for the answers with a line and sinker!

e|---------------------------------------------------------------------------|
B|-3---------3---2----------2------------------------------------------------|
G|-2---------2---2----------2--------------------------2-2-2-2-2-2-2-2-2-2-2-|
D|-0---------0---0----------0---4-4-4-4-4-4-4-4-4-4-4--2-2-2-2-2-2-2-2-4-2-0-|
A|-0---------0---2----------2---4-4-4-4-4-4-4-4-4-4-4--0-0-0-0-0-0-0-0-0-0-0-|
E|-0---------0------------------4-4-4-4-4-4-4-4-4-4-4------------------------|

 LOOK AT ME AND DON'T FORGET! Hard to get a grip with all these broken fingers!

e|---------------------------------------------------------------------------|
B|-3-3-3-3-3-3-3-2-2-2-2-2--2------------------------------------------------|
G|-2-2-2-2-2-2-2-2-2-2-2-2--2--------------------------2-2-2-2-2-2-2-2-2-2-2-|
D|-0-0-0-0-0-0---0-0-0-0-0--0---4-4-4-4-4-4-4-4-4-4-4--2-2-2-2-2-2-2-2-4-2-0-|
A|-0-0-0-0-0-0---2-2-2-2-2--2---4-4-4-4-4-4-4-4-4-4-4--0-0-0-0-0-0-0-0-0-0-0-|
E|-0-0-0-0-0-0------------------4-4-4-4-4-4-4-4-4-4-4------------------------|

  WHAT YOU SEE IS WHAT YOU GET! Fishin' for the answers with a line and sinker!

e|---------------------------------------------------------------------------|
B|-3-3-3-3-3-3-3-2-2-2-2-2--2------------------------------------------------|
G|-2-2-2-2-2-2-2-2-2-2-2-2--2--------------------------2-2-2-2-2-2-2-2-2-2-2-|
D|-0-0-0-0-0-0---0-0-0-0-0--0---4-4-4-4-4-4-4-4-4-4-4--2-2-2-2-2-2-2-2-4-2-0-|
A|-0-0-0-0-0-0---2-2-2-2-2--2---4-4-4-4-4-4-4-4-4-4-4--0-0-0-0-0-0-0-0-0-0-0-|
E|-0-0-0-0-0-0------------------4-4-4-4-4-4-4-4-4-4-4------------------------|

 LOOK AT ME AND DON'T FORGET! Hard to get a grip with all these broken fingers!

Verse:
[ Tab from: http://www.guitartabs.cc/tabs/b/billy_talent/line_and_sinker_tab_ver_3.html ]
e|-------0--------------0------------0-----------------0---------------------|
B|-------2--------------5------------2-----------------2---------------------|
G|----2------------6--------------2----------------2-------------------------|
D|---------------------------------------------------------------------------|
A|----------------------------------------------0----------------------------|
E|-0---------9---------------4-----------------------------------------------|

    Today I don't feel pretty, and I'm tired of trying to fit right in

e|-------0-----------------------0------------------0------------------------|
B|-------2-----------------------5------------------2--------------~2~-------|
G|----2----------------------6------------------2--------------2-------------|
D|---------------------------------------------------------------------------|
A|---------------------------------------------------------0-----------------|
E|-0------------------9--------------------4---------------------------------|

  Don't think you're just so great 'cause being great must suck

Prechorus:

e|---------------------------------------------------------------------------|
B|-8-8-8-8-8-8-8-8-8-8-7-7-7-7-7-7-7-7-7-5-5-5-5-5-5-5-5-5-5-3-3-3-3-3-3-3-3-|
G|-9-9-9-9-9-9-9-9-9-9-7-7-7-7-7-7-7-7-7-6-6-6-6-6-6-6-6-6-6-4-4-4-4-4-4-4-4-|
D|-9-9-9-9-9-9-9-9-9-9-7-7-7-7-7-7-7-7-7-6-6-6-6-6-6-6-6-6-6-4-4-4-4-4-4-4-4-|
A|-7-7-7-7-7-7-7-7-7-7-5-5-5-5-5-5-5-5-5-4-4-4-4-4-4-4-4-4-4-2-2-2-2-2-2-2-2-|
E|---------------------------------------------------------------------------|

  ..on                                             Everybody needs some sympa..

Bridge (light):

e|---------------------------------------------------------------------------|
B|---------------------------------------------------------------------------|
G|---------------------------------------------------------------------------|
D|-------------------------------6-6--6-6--4-4--4-6-7-6-4--------------------|
A|-2-2--2/4--0-0--0-2-4-2-0------4-4--4-4--2-2--2-4-5-4-2--------------------|
E|-2-2--2/4--0-0--0-2-4-2-0--------------------------------------------------|

  Everybody needs some sympathy, Santa seemed to miss my chimney

Bridge (heavy):

e|---------------------------------------------------------------------------|
B|-------------------------------5-5-5-5-5--3-3-3----------------------------|
G|-------------------------------6-6-6-6-6--4-4-4-4-6-7-6-4------------------|
D|-2-2-2-4-2--0-0-0-0-2-4-2-0----6-6-6-6-6--4-4-4-4-6-7-6-4------------------|
A|-2-2-2-4-2--0-0-0-0-2-4-2-0----4-4-4-4-4--2-2-2-2-4-5-4-2------------------|
E|-2-2-2-4-2--0-0-0-0-2-4-2-0------------------------------------------------|

..FROM ME!                  So stand up straight and FIRMLY SAY:

Order:

Chorus         x1
Verse          x2
Prechorus      x4
Chorus         x1
Verse          x2
Prechorus      x4
Chorus         x1
Bridge (light) x4
Bridge (heavy) x2

| /  slide up
| \  slide down
| h  hammer-on
| p  pull-off
| ~  vibrato
| +  harmonic
| x  Mute note
===============================================================================
Comments