Billy Talent - Fallen Leaves Chords & Tabs

 

Fallen Leaves Chords & Tabs

Billy Talent Chords & Tabs

Version: 1 Type: Bass Tab

Fallen Leaves Bass Tab

Album: Billy Talent II
Tabbed by Tony D (Temp144)
Tuning: Drop D

Another song from Billy Talent II. Nice mid-tempo beat. 
Pretty good. Now that the proper version is out, I've corrected 
my errors, so Enjoy! Long Live Taborama.com!

Intro:1x                                                   
G|----------------------------------------------|
D|----------------------------------------------|
A|-3-3-1----------------------------------------|
D|-------5-5-55-6-5-3-1--11-6-6h5-3-3h2-1-1-3-5-|

Verse:2x                    Play After 2x
G|--------------------------|-----------------------------------------|
D|--------------------------|-----------------------------------------|
A|-3(ring)-----6(ring)------|-3333----1111----------------------------|
D|--------5-5-1-------5-5-1-|-----6666----1111--666-5-333-2-111-3-555-|
[ Tab from: http://www.guitartabs.cc/tabs/b/billy_talent/fallen_leaves_btab.html ]
Pre-Chorus:1x
G|---------------------------------------|
D|---------------------------------------|
A|-3333------1111---------------22222222-|
D|------6666------1111--66666666---------|

Chorus:2x
G|-------------------------------------------|
D|-------------------------------------------|
A|-3-3-1-------------------------------------|
D|-------5-55555-0-1-11-6-6h5-3-3h0-1-1-3-5--|

Post Chorus: Play Verse 2x
Verse:2x
Chorus:2x

Bridge:2x                         Play After 1x  Play After 2x
G|----------------------------------|-----------|----------------|
D|----------------------------------|-----------|----------------|
A|-3333-----------------------------|-3333-1111-|-3---3-2-1---1--|
D|------55555555-3-0-1111-3333-6666-|-----------|---5-------3----|

Post Bridge:1x
G|----------------------------------------------------------------|
D|----------------------------------------------------------------|
A|---------3--66-----------3--66---------33336666-----------------|
D|-3--55-----------3--55---------33335555--------5555555522222222-|

Chorus:4x

Ending:1x
G|------------|
D|------------|
A|-3(ring)----|
D|------------|