Billy Talent - Cut The Curtains Chords & Tabs

 

Cut The Curtains Chords & Tabs

Billy Talent Chords & Tabs

Version: 5 Type: Tab 0 ratings
1 star 2 stars 3 stars 4 stars 5 stars
comments

Cut The Curtains Tab

   
Artist: Billy Talent
Title: Cut the curtains (solo)
Album: Billy Talent
Tabbed By: James Kean
Email: JKevenflow88@hotmail.com

h = hammeron
/ = slide up
b = bend
p = pull off
[ Tab from: http://www.guitartabs.cc/tabs/b/billy_talent/cut_the_curtains_tab_ver_5.html ]
E--------------------------------------------------------------------|
B------10------------------------------------------------------------|
G---/10--10-7-7-9-9b-7-5-5b-----7------7-9b-7-5-5b-------------------|
D------------7----------7---77-5--7-7-5--------7---------------------|
A--------------------------------------------------------------------|
D--------------------------------------------------------------------|

E------------------------------------------------------------------|
B------------------------------------------------------------------|
G-----------------------3-1-2--------------------------------------|
D---5h7p5-33-2-3-5-3-1-2-------------------------------------------|
A------------------------------------------------------------------|
D------------------------------------------------------------------|

Easy as pie...
Comments