Billy Squier - The Stroke Chords & Tabs

 

The Stroke Chords & Tabs

Billy Squier Chords & Tabs

Version: 3 Type: Tab 0 ratings
1 star 2 stars 3 stars 4 stars 5 stars
comments

The Stroke Tab

 
Tabbed by: Eric Cartman
Tuning: Standard



  Intro:
e|---------------|--------------|--------------|--------------|
B|---------------|--------------|--------------|--------------|
G|---------------|--------------|--------------|--------------|
D|-10/-12-12-12--|--------------|-10/-12-12-12-|--------------|
A|--8/-10-10-10--|-10/-12-12-12-|--8/-10-10-10-|--7--5--3--2--|
E|---------------|--8/-10-10-10-|--------------|--5--3--1--0--|
  
  ACTUAL SONG:    
e|-----------------------------------------|------------------|
B|------6-6-5-----6-6-5-----6-6-5----------|------6-6-5-------|
G|-----------------------------------------|------------------|
D|---7---------7---------7-----------5-----|---7--------------|
A|---5---------5---------5-----------3--5--|---5--------------|
E|--------------------------------------3--|------------------|

e|---------------------------------------|--------------------------------|
B|-----6-6-5-----6-6-5-------------------|--------------------------------|
G|---------------------------------------|--------------------------------|
D|--7---------7----------5---------------|--7-7-----7-7-----7-7-----------|
A|--5---------5----------3--5------------|--5-5-----5-5-----5-5-----5---3-|
E|--------------------------3------------|--------------------------3---1-|
[ Tab from: http://www.guitartabs.cc/tabs/b/billy_squier/the_stroke_tab_ver_3.html ]
e|----------------------|------------------|-------------------------------|
B|----------------------|------Palm Muted--|-------------------------------|
G|----------------------|------------------|-------------------------------|
D|--7-7-----7-7-----7-7-|-------------3----|------------5/-7-7-7---5/-7-7-7|
A|--5-5-----5-5-----5-5-|---3-5-3-5-3---5--|-3/-5-5-5---3/-5-5-5---3/-5-5-5|
E|----------------------|------------------|-1/-3-3-3----------------------|

e|--------------|---------------------------|------------------------------|
B|--------------|---------------------------|------------------------------|
G|--------------|---------------------------|------------------------------|
D|--------------|--5----7----10-7-----------|---5----7----10-7-------------|
A|--7--5--3--2--|--3----5----8--5-----5--3--|---3----5----8--5------5--3---|
E|--5--3--1--0--|---------------------3--1--|-----------------------3--1---|

e|----------------------------|-------------------|------------------------|
B|----------------------------|-------------------|------------------------|
G|----------------------------|-------------------|------------------------|
D|--5----7----10-7------------|--5----7----10-7---|------------------------|
A|--3----5----8--5------5--3--|--3----5----8--5---|---8--5-----------------|
E|----------------------3--1--|-------------------|---------8--5--8--5--1^-|
                                                                       play the ACTUAL SONG x 3?
Comments