Billy Squier - The Stroke Chords & Tabs

 

The Stroke Chords & Tabs

Billy Squier Chords & Tabs

Version: 2 Type: Tab 0 ratings
1 star 2 stars 3 stars 4 stars 5 stars
comments

The Stroke Tab

   
Tuning: Standard

---------------------------- -----------------------------|
---------------------------- -----------------------------|Intro
---10/12--12-12------------- ----------------------------.|
---10/12--12-12------------- ----10/12--12-12------------.|
----8/10--10-10------------- ----10/12--12-12-------------|
---------------------------- -----8/10--10-10-------------|

------------------ -------------------------------------------------|
------------------ -----6--6p5-------6--6p5-------6--6p5------------|
------------------ --7--5--5------7--5--5------7--5--5-------5------|
--7---5---3---2--- --7------------7------------7-------------5---5--|
--7---5---3---2--- --5------------5------------5-------------3---5--|
--5---3---1---0--- ----------------------------------------------3--|

------------|
------------|
------------|
--5---3-----|
--5---3-----|
--3---1-----|
[ Tab from: http://www.guitartabs.cc/tabs/b/billy_squier/the_stroke_tab_ver_2.html ]
-------------------------------------------------------- -------------------|
-------------------------------------------------------- -------------------|
------7-------------7-------------7--------------------- -------------------|
------7-------------7-------------7------------5----3--- ------------3------|
------5-------------5-------------5------------5----3--- --3-5-3-5-3---5~~~-|
-----------------------------------------------3----1--- -------------------|

---------------------------------------------|
---------------------------------------------|
----------------------------5/7--7-7---------|
--3/5--5-5------------------5/7--7-7---------|
--3/5--5-5------------------3/5--5-5---------|
--1/3--3-3-----------------------------------|

------------------|
------------------|
------------------|
--7---5---3---2---|
--7---5---3---2---|
--5---3---1---0---|

----------------------------------|
----------------------------------|
---5---7--------7-----------------|
---5---7--------7-----------------|
---3---5--------5-----------------|
----------------------------------|

---------------------|
---------------------|
--------------------.|
---5-----3----------.|
---5-----3-----------|
---3-----1-----------|

Little Solo
-----------------------------|
-----------------------------|
-----------------------------|
-----------------------------|
--8---5----------------------|
---------8-5-8-5---1b--------|

Then repeat all riffs

Notation used:
b-bend
~-vibrato
p-pull off
/-slide
Comments