Billy Squier - Shes A Runner Chords & Tabs

 

Shes A Runner Chords & Tabs

Billy Squier Chords & Tabs

Version: 1 Type: Tab 0 ratings
1 star 2 stars 3 stars 4 stars 5 stars
comments

Shes A Runner Tab

   
Auther/Artist:Billy Squier
Title:She's A Runner
Transcribed By:Justin Harmon
Email:womenarenice@hotmail.com

This tab is not totally correct
it's just a start since no one else
had a tab for this I figured I'd start one.
Corrections are welcome


Intro/1st Verse:
Guitar 1
E----3--------3------------3------
B----3--------3--3-3-3-----3------
G--------0-0-----2-2-2------------
D--------X-X-----0-0-0------------
A--------2-3----------------------
E-3---------------------3---------

--------3------------------------
--------3---3/5-3-3--------------
--0-0-------2/4-2-2--------------
--X-X-------0---0-0--------------
--2-3----------------------------
---------------------------------

2nd part of 1st verse
Guitar 2
E-----3------------
B-----3------------
G-----0------------
D-----0------------
A-----X------------
E-----3------------

Pre-Chorus:

E------------------
B------------------
G------------------
D------------------
A------------------
E--7-5-3-0---------

Emin               B 
i could never ever lie to you
[ Tab from: http://www.guitartabs.cc/tabs/b/billy_squier/shes_a_runner_tab.html ]
Emin               B    A
I could never even try    i just want wanna 

   C
be beside you




Chorus:
E----3--------3------------3------
B----3--------3--3-3-3-----3------
G--------0-0-----2-2-2------------
D--------X-X-----0-0-0------------
A--------2-3----------------------
E-3---------------------3---------

--------3-------
--------3-------
--0-0-----------
--X-X-----------
--2-3-----------
----------------

Bridge:
  E   B    E   B      C   G    C   G    E   B    E   B
E---------------------------------------------------------
B---------------------------------------------------------
G-9--------9----------5--------5--------9--------9--------
D-9--9-9---9--9-9-----5--5-5---5--5-5---9--9-9---9--9-9---
A-7--9-9---7--9-9-----3--5-5---3--5-5---7--9-9---7--9-9---
E----7-7------7-7--------3-3------3-3------7-7------7-7---

-------------------------
-------------------------
--5-----7----------------
--5-X8--7-x5-------------
--3-----5----------------
-------------------------
Comments