Billy Squier - Lonely Is The Night Chords & Tabs

 

Lonely Is The Night Chords & Tabs

Billy Squier Chords & Tabs

Version: 2 Type: Tab 0 ratings
1 star 2 stars 3 stars 4 stars 5 stars
comments

Lonely Is The Night Tab

   
---------------------------------------------------------------------------
			     Lonely is the night - Squire Billy
---------------------------------------------------------------------------
Tabbed by: Brandon
Email: rushiscool@hotmail.com

Tuning Low to High:EADGBe


Intro:

|-------0~------------------|-------0~------------|
|-------0~------------------|-------0~------------|
|-2h4-4-4~---2p1-2p1--------|-2h4-4-4~--2p1-2~~~~-|
|---------------------2---- |---------------------|
|---------------------------|---------------------|
|-----------------------0~~~|---------------------|

|-------0~--------------|----------------------------0~~~~~|
|-------0~--------------|----------------------------0~~~~~|
|-2h4-4-4~---2p1-2p1----|----------------------------------|
|---------------------2~|----2-----0~~----0~~--------------|
|-----------------------|-2h4---4h5----4h5---4--2----------|
|-----------------------|--------------------------0-------|

Main riff w/o drums:
[ Tab from: http://www.guitartabs.cc/tabs/b/billy_squier/lonely_is_the_night_tab_ver_2.html ]
|----------------|--------------------------|
|----------------|--------------------------|
|-999--7-7-9~~---|-9-9-9--7--7--6~-6-7-7p6~~| 
|-999--7-7-9~~---|-9-9-9--7--7--7~-7-7-7~~~~| 
|-777--5-5-7~~---|-7-7-7--5--5--7~-7-7-7~~~~|
|----------------|--------------5~-5-5-5~~~~|


to do th last 7p6 part you
lay your pinky down and as
the note is ringing out you 
lift your pinky up.


main riff w/ drums

|-----------------------|-------------------|
|-----------------------|-------------------|
|-9xx--7-x-9~~~9x|-9-x-x--7--x--6~-6-7-7p6~~|
|-9xx--7-x-9~~~9x|-9-x-x--7--x--7~-7-7-7~~~~|
|-7xx--5-x-7~~~7x|-7-x-x--5--x--7~-7-7-7~~~~|
|-----------------------|-------5~-5-5-5~~~~|


That about all i know, if you have questions or get the rest of the song email me at rushiscool@hotmail.com




| /  slide up
| \  slide down
| h  hammer-on
| p  pull-off
| ~  vibrato
| +  harmonic
| x  Mute note
============================================================================
Comments