Billy Squier - Everybody Wants You Chords & Tabs

 

Everybody Wants You Chords & Tabs

Billy Squier Chords & Tabs

Version: 1 Type: Bass Tab 0 ratings
1 star 2 stars 3 stars 4 stars 5 stars
comments

Everybody Wants You Bass Tab

Billy Squier
Everybody Wants You
tabbed by: Rocklvson

Intro:
G:------------------------|-------------------------|
D:------------------------|-------------------------|
A:---------------3--------|----------------3--------|
E:-5-5-3-5-5-3-5---5-3-5-5|3-5-5-3-5-5-3-5---5-3-5-5|

Verse:
G:---------------------------------------------------|
D:---------------------------------------------------|
A:5-5-5-5-5-5-5-5-5-5-5-5-5---5---5-5-5-5-5-5-5-5-5-5|
E:--------------------------3---5--------------------|
[ Tab from: http://www.guitartabs.cc/tabs/b/billy_squier/everybody_wants_you_btab.html ]
Chorus:
G:-----------------------------------------|
D:-----------------------------------------|
A:7-7-7-7-7-7-7-7-7-7-7-7-7-7-7-7-10-12----|<10 eight times 12 eight times
E:-----------------------------------------|

Song Order:

Intro-1
Verse-1
Intro-1
Verse-1
Intro-1
Chorus-2(second time no 12)
Intro-1
Verse-1
Intro-1
Verse-1
Intro-1
Chorus-2(second time no 12)
Intro-1
Verse-3ish
Chorus-1
Intro-2
Verse-1
Intro-1
Verse-1
Intro-1
Chorus-1
Intro-to end

Questions or comments e-mail me at rocklvson@yahoo.com
Comments