Billy Idol - White Wedding Chords & Tabs

 

White Wedding Chords & Tabs

Billy Idol Chords & Tabs

Version: 4 Type: Tab 0 ratings
1 star 2 stars 3 stars 4 stars 5 stars
comments

White Wedding Tab

Title-White Wedding
Artist-Billy Idol
Album-Billy Idol
Guitarist-Steve Stevens
Words And Score By-Billy Idol And Steve Stevens
Tabbed by-Smellslikefeet1

 Billy idol Only Has One Guitarist and steve stevens dubbed this track with different
guitar parts and such to give it the extra kick so i put the dubbed parts in here aswell
not jsut the powercords. thnx for checking otu my tab and if theres anyhtign wrong with
it email me. black_blizzord@msn.com


Please note {This hole song is moslty Palmuted so on any chords that dont have a let
ring sign after it .. there is a palmute implied.}

()-natural Harmonic
/-slide up
\-slide down
h-hammeron
~-let ring
[]dubbed part


intro

harmonic slide
this is a very easy techniqupe. touch teh string very lightly with one finger
making a harmonic then slide down making harmonics with all the frets. this harmonic slide is fairly quick.

let the first chord ring 
|--------------------------|
|--------------------------|
|---------4~---------------|
|---------4----------------|
|---------2----------------|
|(12)/(2)------------------|

|-2------|----2---|-0~-----|-2~--------|
|-3-3----|--3---3-|-0------|-3---------|
|-4---4--|4-------|-1------|-2[4-4-4-4]|
|-4-----4|--------|-2------|-0[4-4-4-4]|
|--------|--------|--------|--[2-x-2-2]|
|--------|--------|--------|-----------|

|-2------|----2---|-5~-----|-4~--------|
|-3-3----|--3---3-|-5------|-5---------|
|-4---4--|4-------|-4------|-4[4-4-4-4]|
|-4-----4|--------|-0------|-0[4-4-4-4]|
|--------|--------|--------|--[2-x-2-2]|
|--------|--------|--------|-----------|
-
pre Verse:
palmute these chords.
|------------------|
|------------------|
|-4-4-4-4-4-4-4-4--|x4
|-4-4-4-4-4-4-4-4--|
|-2-2-2-2-2-2-2-2--|
|------------------|

Verse1
{palmute}
hey little sister what have you done.
hey little sister whos the only one.
hey little sister whos your superman.hey little sister whos the one you want
[ Tab from: http://www.guitartabs.cc/tabs/b/billy_idol/white_wedding_tab_ver_4.html ]
|----------------|------------------|-----------------|---------------------|
|----------------|------------------|-----------------|---------------------|
|-4-4-4-4-4-4-4-4|4-4-4-4-4-4-4-4---|-2-2-2-2-2-2-2-2-|---------------------|
|-4-4-4-4-4-4-4-4|4-4-4-4-4-4-4-4---|-2-2-2-2-2-2-2-2-|-2-2-2-2-2-2-2-2-----|
|-2-2-2-2-2-2-2-2|2-2-2-2-2-2-2-2---|-0-0-0-0-0-0-0-0-|-2-2-2-2-2-2-2-2-----|
|----------------|------------------|-----------------|-0-0-0-0-0-0-0-0-----|


hey little sister shotgun.
|--------------------|
|--------------------|
|-4-4-4-4-4-4-4-4----|
|-4-4-4-4-4-4-4-4----|
|-2-2-2-2-2-2-2-2----|
|--------------------|


chorus>
its a nice day to start again
its a nice day for a whit wed.
|-----------------------------------|
|-----------------------------------|
|----2~-----------------------4~----|
|----2------------2~----------4-----|
|----0------------2-----------2-----|
|-----------------0-----------------|

its a nice day to     start again.
|------------------2--|
|------------------3--|
|----2~------------4--|
|----2-------------4--|
|----0----------------|
|---------------------|

Pre verse:
|------------------|
|------------------|
|-4-4-4-4-4-4-4-4--|x2
|-4-4-4-4-4-4-4-4--|
|-2-2-2-2-2-2-2-2--|
|------------------|

dubbed part plat throughout verse2,chorus2 and pre verse.

|[------------------------]|-]
|[-----3-3-----2-2-2-2-2h3]|-]
|[-----4-4-----4-4-4-4-4-4]|-]
|[-x-x-4-4-x-x-4-4-4-4-4-4]|-]
|--------------------------|-]
|--------------------------|-]

Verse 2 is congruent with Verse1 Except for the dubbed part.

verse2

Hey little sister who is the one your with?
Hey little sister what's your vice and wish?
Hey little sister shot gun (oh yeah)
Hey little sister who's your superman
Hey little sister shot gun!


chorus2
It's a nice day to start again (come on)
It's a nice day for a white wedding
It's a nice day to start again.

Preverse (chords) and dubbing part.
Comments