Billy Idol - Speed Chords & Tabs

 

Speed Chords & Tabs

Billy Idol Chords & Tabs

Version: 1 Type: Tab 0 ratings
1 star 2 stars 3 stars 4 stars 5 stars
comments

Speed Tab

   
                              SPEED BILLY IDOL


(D A D G B E) - 'Dropped D tuning'

Intro
|-----------------|-----------------|
|-----------------|-----------------|
|-5-5-5-5---------|---7-----7-------|
|-5-5-5-5-5-5-5-5-|---7-----7-------|
|-3-3-3-3-5-5-5-5-|---5-----5-------|
|---------5-5-5-5-|-0---0-0---0-0-0-|


|-----------------|-----------------|
|-----------------|-----------------|
|---7-----7-------|---7-----7-------|
|---7-----7-------|---7-----7-------|
|---5-----5-------|---5-----5-------|
|-0---0-0---0-0-0-|-0---0-0---0-0-0-|


|-----------------|------------------|
|-----------------|------------------|
|-5-5-5-5---------|---7-----7--------|
|-5-5-5-5-5-5-5-5-|---7-----7--------|
|-3-3-3-3-5-5-5-5-|---5-----5--------|
|---------5-5-5-5-|-0---0-0---0-0-0--|


|-----------------|------------------|
|-----------------|------------------|
|---7-----7-------|---7-----7--------|
|---7-----7-------|---7-----7--------|
|---5-----5-------|---5-----5--------|
|-0---0-0---0-0-0-|-0---0-0---0-0-0--|


|-----------------|------------------|
|-----------------|------------------|
|-5-5-5-5---------|-3-3-3-3-2-2-2-2--|
|-5-5-5-5-5-5-5-5-|-3-3-3-3-2-2-2-2--|
|-3-3-3-3-5-5-5-5-|-1-1-1-1-0-0-0-0--|
|---------5-5-5-5-|------------------|


|---------7----|--8----|
|---------8----|-10----|
|--------------|-------|
|---0---0------|-------|
|---0---0------|-------|
|-0-0-0-0------|-------|

Verse 1 clean Guitar
|-2--|-----------|-2-|-----------|--2----|
|-3--|-------3---|-3-|---6----8--|--3----|
|-2--|--5----4---|-2-|---5----7--|--2----|
|-0--|--5----5---|-0-|---3----5--|--0----|
|-0--|--3----5---|-0-|---3----5--|--0----|
|-0--|-----------|-0-|---3----5--|--0----|

Bridge 'flash me to ...'
|-------------------|-------------------|
|-------------------|-------------------|
|-------------------|-------------------|
|----0--3--0-----0--|----0--3--0-----0--|
|-2-----------2-----|-1-----------1-----|
|-------------------|-------------------|


|-----------------|----------------|
|-----------------|----------------|
|---7-----7-------|---7-----7--5---|
|---7-----7-------|---7-----7--5---|
|---5-----5-------|---5-----5--3---|
|-0---0-0---0-0-0-|-0---0-0--------|

[ Tab from: http://www.guitartabs.cc/tabs/b/billy_idol/speed_tab.html ]
|-------------|-------------|---------------|
|-------------|-------------|---------------|
|-------------|-------------|---------------|
|----0--3--0--|----0-----0--|-3--0-----0----|
|-2-----------|-2-----1-----|-------1-------|
|-------------|-------------|---------------|


|----------------|---------------|
|-----10------8--|-----6------5--|
|------9------7--|-----5------4--|
|------7------5--|-----3------2--|
|------7------5--|-----3------2--|
|-7-7--7--5-5-5--|-3-3-3--2-2-2--|


|-------------------|----|
|-4-4-4-4-4-4-4-4-4-|----|
|-3-3-3-3-3-3-3-3-3-|----|
|-1-1-1-1-1-1-1-1-1-|----|
|-1-1-1-1-1-1-1-1-1-|----|
|-1-1-1-1-1-1-1-1-1-|----|

Chorus 'speed is what I need....'
|---------------|-----------------|----------------|
|---------------|-----------------|----------------|
|---------------|---7--------7-7--|----------------|
|---------------|---7--------7-7--|----------------|
|---------------|---5--------5-5--|----------------|
|-0-7-6-5-0-3-5-|-0---0-0-0-------|-0-7-6-5-0-3-5--|


|----------------|---------------|----------------|
|---6--------6-6-|---------------|---8--------8-8-|
|---5--------5-5-|---------------|---7--------7-7-|
|---3--------3-3-|---------------|---5--------5-5-|
|---3--------3-3-|---------------|---5--------5-5-|
|-3-3-3-3-3--3-3-|-0-7-6-5-0-3-4-|-5-5-5-5-5--5-5-|

                                   repeat chorus
|-----------------|---------------|----|
|-----------------|---------------|----|
|-----------------|---7-------7---|----|
|-----------------|---7-------7---|----|
|---0-3-5-5-3-4---|---5-------5---|----|
|-0---------------|-0---0-0-------|----|

Verse 2
|-----------------|-------------------|
|-----------------|-------------------|
|-5-5-5-5---------|---7-----7---------|
|-5-5-5-5-5-5-5-5-|---7-----7---------|
|-3-3-3-3-5-5-5-5-|---5-----5---------|
|---------5-5-5-5-|-0---0-0---0-0-0---|


|-----------------|------------------|
|-----------------|------------------|
|---7-----7-------|---7-----7--------|
|---7-----7-------|---7-----7--------|
|---5-----5-------|---5-----5--------|
|-0---0-0---0-0-0-|-0---0-0---0-0-0--|


|-----------------|------------------|
|-----------------|------------------|
|-5-5-5-5---------|---7-----7--------|
|-5-5-5-5-5-5-5-5-|---7-----7--------|
|-3-3-3-3-5-5-5-5-|---5-----5--------|
|---------5-5-5-5-|-0---0-0---0-0-0--|


|-----------------|-----------|
|-----------------|-6----8----|
|---7-----7-------|-5----7----|
|---7-----7-------|-3----5----|
|---5-----5-------|-3----5----|
|-0---0-0---0-0-0-|-3----5----|

  repeat then bridge chorus etc..
|-----------------|----|
|-----------------|----|
|---7-----7-5-6-7-|----|
|---7-----7-5-6-7-|----|
|---5-----5-3-4-5-|----|
|-0---0-0---------|----|
Comments