Billy Idol - Rebel Yell Chords & Tabs

 

Rebel Yell Chords & Tabs

Billy Idol Chords & Tabs

Version: 2 Type: Tab 0 ratings
1 star 2 stars 3 stars 4 stars 5 stars
comments

Rebel Yell Tab

   
#----------------------------------PLEASE NOTE---------------------------------#
#This file is the author's own work and represents their interpretation of the #
#song. You may only use this file for private study, scholarship, or research. #
#------------------------------------------------------------------------------##

                                   REBEL YELL
                            As recorded by Billy Idol
               (From the 1983 Album REBEL YELL - EXPANDED EDITION)

Words and Music by Billy Idol, Steve Stevens


         D5/A                  G5                   F#5                  E5
     x x x x 10 10         3 5 x x x x          2 4 x x x x          0 2 x x x x

      D5(type 2)                A                   Bm                   B5
      x 5 7 7 x x          x 0 2 2 2 x          x 2 4 4 3 2          x 2 4 x x x

          D5V              B5(type 2)                G                G(type 2)
      x 5 7 x x x          7 9 x x x x          3 5 5 4 3 3          x x 5 4 3 3

          A5V                 B5VI              Bm(type 2)           Bm(type 3)
      5 7 7 x x x          7 9 9 x x x          7 9 9 7 x x          x x 9 7 7 7

      Bm(type 4)                D                   D/A                Gmaj7/D
      7 9 9 7 7 x          x 5 7 7 7 x          x x 7 7 7 x          x 5 5 7 7 x

         Gmaj7
      x x 5 7 7 7

Gtr I (E A D G B E) - 'Dist. GTR'
Gtr II (E A D G B E) - 'OD GTR'
Gtr III (E A D G B E) - 'KBD-A [organ]'
Gtr IV (E A D G B E) - 'KBD-B [strings]'
Gtr V (E A D G B E) - 'KBD-C [lead]'
Gtr VI (E A D G B E) - 'KBD-D [efx]'

 Intro
  Fast Rock Q=168
  N.C.(Bm)
 4/4
  Gtr I
   E   E  E  E  E   E  E  E    E   E  E  E  E   E  E  E
|-10--10-10-10-10--10-10-10-|-10--10-10-10-10--10-10-10-|
|-10--10-10-10-10--10-10-10-|-10--10-10-10-10--10-10-10-|
|---------------------------|---------------------------|
|---------------------------|---------------------------|
|---------------------------|---------------------------|
|---------------------------|---------------------------|
|
| Gtr II
|  Q.        E +Q      E  E    Q.        E +Q      E  E
|---------------------------|---------------------------|
|---------------------------|---------------------------|
|---------------------------|---------------------------|
|----------------------7--9-|----------------------7--9-|
|------------9-(9)----------|------------9-(9)----------|
|--7------------------------|--7------------------------|


   E   E  E  E  E   E  E  E    E   E  E  E  E   E  E  E
|-10--10-10-10-10--10-10-10-|-10--10-10-10-10--10-10-10-|
|-10--10-10-10-10--10-10-10-|-10--10-10-10-10--10-10-10-|
|---------------------------|---------------------------|
|---------------------------|---------------------------|
|---------------------------|---------------------------|
|---------------------------|---------------------------|
|
|  Q.        E +Q      E  E    Q.        E +Q      E  E
|---------------------------|---------------------------|
|---------------------------|---------------------------|
|---------------------------|---------------------------|
|----------------------7--9-|----------------------7--9-|
|------------9-(9)----------|------------9-(9)----------|
|--7------------------------|--7------------------------|


  G5                          F#5
  Gtr II
   E  E  E  E  E  E  E   E     E  E  E  E  E  E   E    E
   |  |  |  |  |  |  |   |     |  |  |  |  |  |   |    |
   /  /  /  /  /  /  /   /     /  /  /  /  /  /   /    /

   PM------------|             PM---------|
   E  E  E  E  E  E  E   E     E  E  E  E  E  E.    S  E
|---------------------------|----------------------------|
|---------------------------|----------------------------|
|---------------------------|-----------------4--------4-|
|---------------------------|-----------------2--------2-|
|-------------------[5]-[5]-|----------------------------|
|--3--3--3--3--3--3---------|--2--2--2--2--2-------------|
|
| Gtr III
|  E  E  E  E  E  E  E   E     E  E  E  E  E  E   E    E
|----------19-----------19--|----------17-------------17-|
|-19-17-19----19----19------|-19----19----19-----19------|
|----------------19---------|----18----------18----------|
|---------------------------|----------------------------|
|---------------------------|----------------------------|
|---------------------------|----------------------------|


  E5
   E   E  E  E  E  E  E   E     E  E  E  E  E  E   E    E
   |   |  |  |  |  |  |   |     |  |  |  |  |  |   |    |
   /   /  /  /  /  /  /   /     /  /  /  /  /  /   /    /

   PM-------------|             PM---------|
   E   E  E  E  E  E  E   E     E  E  E  E  E  E.    S  E
|----------------------------|-----------------------------|
|----------------------------|-----------------------------|
|-(4)------------------------|-----------------4--------4--|
|-(2)------------------------|-----------------2--------2--|
|--------------------[5]-[5]-|-----------------------------|
|--0---0--0--0--0--0---------|--0--0--0--0--0--------------|
|
|  E   E  E  E  E  E  E   E     E  E  E  E  E  E   E    E
|-----------19-----------19--|----------19-------------19--|
|-19--17-19----19----19------|-19-17-19----19-----19-------|
|-----------------19---------|----------------19-----------|
|----------------------------|-----------------------------|
|----------------------------|-----------------------------|
|----------------------------|-----------------------------|


  G5                          F#5
   E  E  E  E  E  E  E   E     E  E  E  E  E  E   E    E
   |  |  |  |  |  |  |   |     |  |  |  |  |  |   |    |
   /  /  /  /  /  /  /   /     /  /  /  /  /  /   /    /

   PM------------|             PM---------|
   E  E  E  E  E  E  E   E     E  E  E  E  E  E.    S  E
|---------------------------|----------------------------|
|---------------------------|----------------------------|
|---------------------------|-----------------4--------4-|
|---------------------------|-----------------2--------2-|
|-------------------[5]-[5]-|----------------------------|
|--3--3--3--3--3--3---------|--2--2--2--2--2-------------|
|
|  E  E  E  E  E  E  E   E     E  E  E  E  E  E   E    E
|----------19-----------19--|----------17-------------17-|
|-19-17-19----19----19------|-19----19----19-----19------|
|----------------19---------|----18----------18----------|
|---------------------------|----------------------------|
|---------------------------|----------------------------|
|---------------------------|----------------------------|


  E5                                       D5(typA 2)
   E   E  E  E  E  E  E   E     E  E  E  E  Q     Q
   |   |  |  |  |  |  |   |     |  |  |  |  |     |
   /   /  /  /  /  /  /   /     /  /  /  /  /     /

   PM-------------|             PM------|
   E   E  E  E  E  E  E   E     E  E  E  E  Q     Q
|----------------------------|-------------------------|
|----------------------------|-------------------------|
|-(4)------------------------|--------------7----------|
|-(2)------------------------|--------------7-----7----|
|--------------------[5]-[5]-|--------------5-----7----|
|--0---0--0--0--0--0---------|--0--0--0--0--------5----|
|
|  E   E  E  E  E  E  E   E     E  E  E  E  E  E  E  E
|-----------19-----------19--|----------19----------19-|
|-19--17-19----19----19------|-19-17-19----19----19----|
|-----------------19---------|----------------19-------|
|----------------------------|-------------------------|
|----------------------------|-------------------------|
|----------------------------|-------------------------|


  Bm
  W          +W                 +W              +W
  |           |                  |               |
  /           /                  /               /

                      <
                                 ~~~~~~~~~~~~~~~~~~~~
  W           H       H         +W              +H      H
|----------|----------------|---------------|-----------------|
|----------|--------[10]----|-([10])--------|-([10])----------|
|----------|----------------|---------------|-----------------|
|-9--------|-(9)------------|---(9)---------|---(9)-----x\----|
|-9--------|-(9)------------|---(9)---------|---(9)-----x\----|
|-7--------|-(7)------------|---(7)---------|---(7)-----------|
|            +W                 +W              +H      H
|
| Gtr IV
| <
| W          +W                 +W              +W
|----------|----------------|---------------|-----------------|
|-3--------|-(3)------------|---(3)---------|---(3)-----------|
|-4--------|-(4)------------|---(4)---------|---(4)-----------|
|-4--------|-(4)------------|---(4)---------|---(4)-----------|
|----------|----------------|---------------|-----------------|
|----------|----------------|---------------|-----------------|


   Verses 1 & 2
    $
    B5  B B5  B   B5  B     B5  B B5  B   B5  B
     E  E  E  E E  E  E E    E  E  E  E E  E  E E
     |  |  |  | |  |  | |    |  |  |  | |  |  | |
     /  o  /  o /  /  o /    /  o  /  o /  /  o /

     q     q    E  E  E E    q     q    E  E  E E
||----------------(7)-----|---------------(7)-----|
||o--7-----7----x--7----x-|--7-----7----x--7----x-|
||---7-----7----x--7----x-|--7-----7----x--7----x-|
||---9-----9----x--9----x-|--9-----9----x--9----x-|
||o--9-----9----x-(9)---x-|--9-----9----x-(9)---x-|
||--(7)---(7)-------------|-(7)---(7)-------------|
|
|    W                      +W
||------------------------|-----------------------|
||o--3--------------------|-(3)-------------------|
||---4--------------------|-(4)-------------------|
||---4--------------------|-(4)-------------------|
||o-----------------------|-----------------------|
||------------------------|-----------------------|
|
|   Gtr V
|    W                       W
||------------------------|-----------------------|
||o-----------------------|-----------------------|
||------------------------|-----------------------|
||------------------------|-----------------------|
||o-----------------------|-----------------------|
||------------------------|-----------------------|


  B5  B B5  B    B5  B      B5  B B5  B    B5  B
   E  E  E  E E   E  E  E    E  E  E  E  E  E  E E
   |  |  |  | |   |  |  |    |  |  |  |  |  |  | |
   /  o  /  o /   /  o  /    /  o  /  o  /  /  o /

   q     q    E   E  E  E    q     q     E  E  E E
|----------------(7)------|----------------(7)-----|
|--7-----7----x---7-----x-|--7-----7-----x--7----x-|
|--7-----7----x---7-----x-|--7-----7-----x--7----x-|
|--9-----9----x---9-----x-|--9-----9-----x--9----x-|
|--9-----9----x--(9)----x-|--9-----9-----x-(9)---x-|
|-(7)---(7)---------------|-(7)---(7)--------------|
|
| +W                        +W
|-------------------------|------------------------|
|-(3)---------------------|-(3)--------------------|
|-(4)---------------------|-(4)--------------------|
|-(4)---------------------|-(4)--------------------|
|-------------------------|------------------------|
|-------------------------|------------------------|
|
|  H          Q.        E    H           H
|----------------------17S|=19---------------------|
|-------------------------|------------------------|
|-------------------------|-------------19---------|
|-------------------------|------------------------|
|-------------------------|------------------------|
|-------------------------|------------------------|


  D5V  D D5V D   D5V D     D5V D D5V D   D5V D
    E  E  E  E E  E  E E    E  E  E  E E  E  E E
    |  |  |  | |  |  | |    |  |  |  | |  |  | |
    /  o  /  o /  /  o /    /  o  /  o /  /  o /

    q     q    E  E  E E    q     q    E  E  E E
|----------------(5)-----|---------------(5)-----|
|---5-----5----x--5----x-|--5-----5----x--5----x-|
|---7-----7----x--7----x-|--7-----7----x--7----x-|
|---7-----7----x--7----x-|--7-----7----x--7----x-|
|---5-----5----x--5----x-|--5-----5----x--5----x-|
|--(5)---(5)-------------|-(5)---(5)-------------|
|
|   W                      +W
|---5--------------------|-(5)-------------------|
|---7--------------------|-(7)-------------------|
|---7--------------------|-(7)-------------------|
|---7--------------------|-(7)-------------------|
|------------------------|-----------------------|
|------------------------|-----------------------|
|
|   ~~~~
|  +H          H            W
|------------------------|-----------------------|
|------------------------|-----------------------|
|-(19)-------------------|-----------------------|
|------------------------|-19--------------------|
|------------------------|-----------------------|
|------------------------|-----------------------|


                         1.
  G5  G G5  G   G5  G     E5   E E5  E D    E
   E  E  E  E E  E  E E     E  E  E  E  E E  E E
   |  |  |  | |  |  | |     |  |  |  |  | |  | |
   /  o  /  o /  /  o /     /  o  /  o  o /  o /

                                        PM-----|
   q     q    E  E  E E     q     q     E E  E E
|---------------(3)-----|--(7)---(7)---------------||
|-(3)---(3)---x--3----x-|---7-----7---------------o||
|--4-----4----x--4----x-|---7-----7----------------||
|--4-----4----x--4----x-|---5-----5-----7-7--------||
|--5-----5----x--5----x-|---5-----------5-5--7-7--o||
|--3-----3--------------|--------------------5-5---||
|
|  W                       +H           Q    Q
|-----------------------|--------------------------||
|--7--------------------|--(7)--------------------o||
|--7--------------------|--(7)---------------------||
|--9--------------------|--(9)---------------------||
|-10--------------------|-(10)---------12---12----o||
|-----------------------|-------------------12-----||
|
|  W                       +Q     Q     Q    Q
|-----------------------|--------------------------||
|-----------------------|-------------------------o||
|-----------------------|--------------------------||
|-----------------------|--------------------------||
|-14--------------------|-(14)---------12---12----o||
|-----------------------|-------------------12-----||


                     1st Chorus
  2.
        To Coda
            D5(Aype 2)B5(type 2)
   H        Q  Q      E E E E E E E  E
            |  |      | | | | | | |  |
            /  /      / / / / / / /  /

   q    q   Q  Q      Q   Q   E E E  E
|-(7)--(7)--------||--------------------|
|--7----7---------||o---------x-x-x--7--|
|--7----7---7-----||--7---7---x-x-x--7--|
|--5----5---7--7--||--9---9---x-x-x--7--|
|-----------5--7--||o-9---9---x-x-x-(9)-|
|--------------5--||--7---7-------------|
|
| Gtr IV
|  H        Q  Q      W
|-----------------||--7-----------------|
|--7--------3-----||o-------------------|
|--7-----------2--||--------------------|
|--9-----------2--||--------------------|
|-10--------------||o-------------------|
|-----------------||--------------------|


   E  E E  E E E E E    E  E E E E E E  E
   |  | |  | | | | |    |  | | | | | |  |
   /  / /  / / / / /    /  / / / / / /  /

  +Q    Q    E E Q      Q    Q   E E E  E
|--------------------|----------------------|
|-(7)---7\-----------|-----------x-x-x--7---|
|-(7)---7\-----------|--7----7---x-x-x--7---|
|-(7)---7\-----------|--9----9---x-x-x--7---|
|-(9)----------------|--9----9---x-x-x-(9)--|
|------------5h7p5---|--7----7--------------|
|
| +W                   +W
|-(7)----------------|-(7)------------------|
|--------------------|----------------------|
|--------------------|----------------------|
|--------------------|----------------------|
|--------------------|----------------------|
|--------------------|----------------------|


  B5(type 2)           D5V
   E  E E  E E E E E    E E E E E E E  E      E  E E  E E E E E
   |  | |  | | | | |    | | | | | | |  |      |  | |  | | | | |
   /  / /  / / / / /    / / / / / / /  /      /  / /  / / / / /

  +Q    Q    E E Q      Q   Q   E E E  E     +Q    Q    E E Q
|--------------------|--------------------|---------------------|
|-(7)---7\-----------|--7---7---x-x-x--7--|--(7)---7\-----------|
|-(7)---7\-----------|--7---7---x-x-x--7--|--(7)---7\-----------|
|-(7)---7\-----------|--7---7---x-x-x--7--|--(7)---7\-----------|
|-(9)----------------|--5---5---------(5)-|--(5)----------------|
|------------5h7p5---|--------------------|-------------5h7p5---|
|
| +W                    W                    +W
|-(7)----------------|-10-----------------|-(10)----------------|
|--------------------|--------------------|---------------------|
|--------------------|--------------------|---------------------|
|--------------------|--------------------|---------------------|
|--------------------|--------------------|---------------------|
|--------------------|--------------------|---------------------|


                        1.
  G5                    E5          D   A
   E E E  E E E E  E     E  E  E  E E E E E
   | | |  | | | |  |     |  |  |  | | | | |
   / / /  / / / /  /     /  /  /  / o / o /

                                    PM----|
   Q   Q    E E E  E    +Q     Q    E E E E
|-----------------(7)-|-(7)---(7)--------------||
|--7---7\---x-x-x--7--|-(7)----7--------------o||
|--7---7\---x-x-x--7--|-(7)----7---------------||
|--5---5\---x-x-x--5--|-(5)----5----7-7-0-0----||
|--5---5\-------------|-------------5-5-0-0---o||
|---------------------|------------------------||
|
|  W                     W
|---------------------|------------------------||
|-12------------------|-----------------------o||
|---------------------|------------------------||
|---------------------|------------------------||
|---------------------|-----------------------o||
|---------------------|------------------------||


  2.
  E5          D5(Aype Bm
   E  E  E  E Q  Q     W
   |  |  |  | |  |     |
   /  /  /  / /  /     /

  Gtr I
                       \6____/4____/3_____/2_____/1____/
   q     q    Q  Q     E    +E    +Q     +Q     +E    +E
|-(7)---(7)---------|--------------------------------------|
|--7-----7----------|--------------------------------------|
|--7-----7----7-----|-<9>--(<9>)-(<9>)--(<9>)--(<9>)-(<9>)-|
|--5-----5----7--7--|--------------------------------------|
|-------------5--7--|--------------------------------------|
|----------------5--|--------------------------------------|
|
| Gtr IV
|  H          Q  Q     W
|-------------------|--------------------------------------|
|-------------3-----|--3-----------------------------------|
|----------------2--|--4-----------------------------------|
|----------------2--|--4-----------------------------------|
|-------------------|--------------------------------------|
|-------------------|--------------------------------------|


                                          D.S. al Coda
   +W                       +W            +W
    |                        |             |
    /                        /             /

    ~~~~~~~~~~~~~~~~~~~~~~~~~~~~~
   +Q     +Q     +H         +W             Q   Q   H
|------------------------|--------------|-----------------||
|------------------------|--------------|-----------------||
|-(<9>)--(<9>)--(<9>)----|-(<9>)--------|--x/-------------||
|------------------------|--------------|--x/--x\--9\-----||
|------------------------|--------------|------x\--9\-----||
|------------------------|--------------|-----------------||
|
|  +W                       +W            +W
|------------------------|--------------|-----------------||
|--(3)-------------------|--(3)---------|-(3)-------------||
|--(4)-------------------|--(4)---------|-(4)-------------||
|--(4)-------------------|--(4)---------|-(4)-------------||
|------------------------|--------------|-----------------||
|------------------------|--------------|-----------------||


   2nd Chorus
    &
    B5(type 2)
    E E E E E E E  E     E  E E  E E E E E
    | | | | | | |  |     |  | |  | | | | |
    / / / / / / /  /     /  / /  / / / / /

    Gtr I
    Q   Q   E E E  E    +Q    Q    E E Q
||--------------------|--------------------|
||o---------x-x-x--7--|-(7)---7\-----------|
||--7---7---x-x-x--7--|-(7)---7\-----------|
||--9---9---x-x-x--7--|-(7)---7\-----------|
||o-9---9---x-x-x-(9)-|-(9)----------------|
||--7---7-------------|------------5h7p5---|
|
|   Gtr IV
|   W                   +W
||--7-----------------|-(7)----------------|
||o-------------------|--------------------|
||--------------------|--------------------|
||--------------------|--------------------|
||o-------------------|--------------------|
||--------------------|--------------------|


                                             D5V
   E  E E E E E E  E     E  E E  E E E E E    E E E E E E E  E
   |  | | | | | |  |     |  | |  | | | | |    | | | | | | |  |
   /  / / / / / /  /     /  / /  / / / / /    / / / / / / /  /

   Q    Q   E E E  E    +Q    Q    E E Q      Q   Q   E E E  E
|---------------------|--------------------|---------------------|
|-----------x-x-x--7--|-(7)---7\-----------|--7---7---x-x-x--7---|
|--7----7---x-x-x--7--|-(7)---7\-----------|--7---7---x-x-x--7---|
|--9----9---x-x-x--7--|-(7)---7\-----------|--7---7---x-x-x--7---|
|--9----9---x-x-x-(9)-|-(9)----------------|--5---5---------(5)--|
|--7----7-------------|------------5h7p5---|---------------------|
|
| +W                    +W                    W
|-(7)-----------------|-(7)----------------|-10------------------|
|---------------------|--------------------|-10------------------|
|---------------------|--------------------|---------------------|
|---------------------|--------------------|---------------------|
|---------------------|--------------------|---------------------|
|---------------------|--------------------|---------------------|


                       1.
                        G5
    E  E E  E E E E E    E E E  E E E E  E
    |  | |  | | | | |    | | |  | | | |  |
    /  / /  / / / / /    / / /  / / / /  /

   +Q    Q    E E Q      Q   Q    E E E  E
|---------------------|-----------------(7)-|
|--(7)---7\-----------|--7---7\---x-x-x--7--|
|--(7)---7\-----------|--7---7\---x-x-x--7--|
|--(7)---7\-----------|--5---5\---x-x-x--5--|
|--(5)----------------|--5---5\-------------|
|-------------5h7p5---|---------------------|
|
|  +W                    W
|-(10)----------------|-10------------------|
|-(10)----------------|---------------------|
|---------------------|---------------------|
|---------------------|---------------------|
|---------------------|---------------------|
|---------------------|---------------------|


                             2.
  E5           D    A        G                  G(type 2)
    E  E  E  E  E E  E E      H       E E E E    q    q   H
    |  |  |  |  | |  | |      |       | | | |    |    |
    /  /  /  /  o /  o /      /       / / / /    /    /

                PM-----|
   +Q     Q     E E  E E      Q  +Q   E E E E    q    q   Q  E E
|--(7)---(7)--------------||----------x-x-x-x-|--7----7------------||
|--(7)----7--------------o||--7--(7)--x-x-x-x-|--7----7------------||
|--(7)----7---------------||--7--(7)--x-x-x-x-|--7----7------------||
|--(5)----5-----7-7--0-0--||--5--(5)----------|--5----5------------||
|---------------5-5--0-0-o||--5---------------|--------------------||
|-------------------------||------------------|--------------0-2---||
|
|  +H           Q    Q        W                  E E  E E H
|-(10)--------------12----||------------------|--------------------||
|--------------10--------o||-12---------------|-15---15------------||
|--------------------9----||------------------|-12---16------------||
|-------------------------||------------------|-12---12------------||
|------------------------o||------------------|--------------------||
|-------------------------||------------------|--------------------||


   Interlude
    G5                          F#5
     E  E  E  E  E  E  E   E     E  E  E  E  E  E   E    E
     |  |  |  |  |  |  |   |     |  |  |  |  |  |   |    |
     /  /  /  /  /  /  /   /     /  /  /  /  /  /   /    /

    Gtr I
     PM------------|             PM---------|
     E  E  E  E  E  E  E   E     E  E  E  E  E  E.    S  E
||----------------------------|----------------------------|
||o---------------------------|----------------------------|
||----------------------------|-----------------4--------4-|
||----------------------------|-----------------2--------2-|
||o-------------------[5]-[5]-|----------------------------|
||---3--3--3--3--3--3---------|--2--2--2--2--2-------------|
|
|   Gtr III
|    E  E  E  E  E  E  E   E     E  E  E  E  E  E   E    E
||-----------19-----------19--|----------17-------------17-|
||o-19-17-19----19----19------|-19----19----19-----19------|
||-----------------19---------|----18----------18----------|
||----------------------------|----------------------------|
||o---------------------------|----------------------------|
||----------------------------|----------------------------|


  E5
   E   E  E  E  E  E  E   E     E  E  E  E  E  E   E    E
   |   |  |  |  |  |  |   |     |  |  |  |  |  |   |    |
   /   /  /  /  /  /  /   /     /  /  /  /  /  /   /    /

   PM-------------|             PM---------|
   E   E  E  E  E  E  E   E     E  E  E  E  E  E.    S  E  3x
|----------------------------|-----------------------------||
|----------------------------|----------------------------o||
|-(4)------------------------|-----------------4--------4--||
|-(2)------------------------|-----------------2--------2--||
|--------------------[5]-[5]-|----------------------------o||
|--0---0--0--0--0--0---------|--0--0--0--0--0--------------||
|
|  E   E  E  E  E  E  E   E     E  E  E  E  E  E   E    E  3x
|-----------19-----------19--|----------19-------------19--||
|-19--17-19----19----19------|-19-17-19----19-----19------o||
|-----------------19---------|----------------19-----------||
|----------------------------|-----------------------------||
|----------------------------|----------------------------o||
|----------------------------|-----------------------------||


  G5                          F#5
   E  E  E  E  E  E  E   E     E  E  E  E  E  E   E    E
   |  |  |  |  |  |  |   |     |  |  |  |  |  |   |    |
   /  /  /  /  /  /  /   /     /  /  /  /  /  /   /    /
[ Tab from: http://www.guitartabs.cc/tabs/b/billy_idol/rebel_yell_tab_ver_2.html ]
   PM------------|             PM---------|
   E  E  E  E  E  E  E   E     E  E  E  E  E  E.    S  E
|---------------------------|----------------------------|
|---------------------------|----------------------------|
|---------------------------|-----------------4--------4-|
|---------------------------|-----------------2--------2-|
|-------------------[5]-[5]-|----------------------------|
|--3--3--3--3--3--3---------|--2--2--2--2--2-------------|
|
|  E  E  E  E  E  E  E   E     E  E  E  E  E  E   E    E
|----------19-----------19--|----------17-------------17-|
|-19-17-19----19----19------|-19----19----19-----19------|
|----------------19---------|----18----------18----------|
|---------------------------|----------------------------|
|---------------------------|----------------------------|
|---------------------------|----------------------------|


  E5                                       D5(typeA2)
   E   E  E  E  E  E  E   E     E  E  E  E  Q      Q
   |   |  |  |  |  |  |   |     |  |  |  |  |      |
   /   /  /  /  /  /  /   /     /  /  /  /  /      /

   PM-------------|             PM------|
   E   E  E  E  E  E  E   E     E  E  E  E  Q      Q
|----------------------------|--------------------------|
|----------------------------|---------------------2----|
|-(4)------------------------|--------------7\-----2----|
|-(2)------------------------|--------------7\-----2----|
|--------------------[5]-[5]-|--------------5\-----0----|
|--0---0--0--0--0--0---------|--0--0--0--0--------------|
|
|  E   E  E  E  E  E  E   E     E  E  E  E  E   E  E  E
|-----------19-----------19--|----------19-----------19-|
|-19--17-19----19----19------|-19-17-19----19-----19----|
|-----------------19---------|-----------------19-------|
|----------------------------|--------------------------|
|----------------------------|--------------------------|
|----------------------------|--------------------------|


  Bm
  Gtr I
   W                          +W
|---------------------------|---------------------------|
|---------------------------|---------------------------|
|--4------------------------|-(4)-----------------------|
|--4------------------------|-(4)-----------------------|
|--2------------------------|-(2)-----------------------|
|---------------------------|---------------------------|
|
| Gtr V
|  E   E  E  E  E   E  E  E    E   E  E  E  E   E  E  E
|-10--10-10-10-10--10-10-10-|-10--10-10-10-10--10-10-10-|
|-10--10-10-10-10--10-10-10-|-10--10-10-10-10--10-10-10-|
|---------------------------|---------------------------|
|---------------------------|---------------------------|
|---------------------------|---------------------------|
|---------------------------|---------------------------|
|
| Gtr II
|  Q.        E +Q      E  E    Q.        E +Q      E  E
|---------------------------|---------------------------|
|---------------------------|---------------------------|
|---------------------------|---------------------------|
|----------------------7--9-|----------------------7--9-|
|------------9-(9)----------|------------9-(9)----------|
|--7------------------------|--7------------------------|


                       A5VB5VI
    <
    ~~~~                                           ~~~~~
    H.                  E  E    E  E      +Q      +Q       E  E
|----------------------------|-----------------------------------||
|-[10]-----------------------|----10-----(10)----(10)------------||
|--(4)------------------2--4-|-----9b10===(9)-----(9)r-----7--7--||
|--(4)------------------2--4-|-----------------------------------||
|--(2)------------------0--2-|-----------------------------------||
|----------------------------|-----------------------------------||
|
|   E   E  E  E  E   E  E  E    E  E       E   E   E    E  E  E
|--10--10-10-10-10--10-10-10-|-10-10------10--10--10---10-10-10--||
|--10--10-10-10-10--10-10-10-|-10-10------10--10--10---10-10-10--||
|----------------------------|-----------------------------------||
|----------------------------|-----------------------------------||
|----------------------------|-----------------------------------||
|----------------------------|-----------------------------------||
|
|   Q.        E +Q      E  E    Q          Q       Q       Q
|----------------------------|-----------------------------------||
|----------------------------|-----------------------------------||
|----------------------------|-----------------------------------||
|-----------------------7--9-|-------------9---------------9-----||
|-------------9-(9)-----7--9-|-------------9---------------9-----||
|---7-------------------5--7-|-------------7---------------7-----||


 Guitar Solo
  Bm(type 2)             Bm(type 3)           A    B A
  Gtr II
   H             E E  E   E       +Q    +Q      E  E Q
   |             | |  |   |        |     |      |  | |
   /             x x  x   /        /     /      o  o o

   E    E E E    E E +E   E        E  E +E  E   Q.     E
|---------7--------7-(7)-------|------7-(7)---------------|
|-------7--------7-------------|---7--------7---7---------|
|--9b11-----9b11----------9b11-|-----------------------x\-|
|------------------------------|-----------------------x\-|
|------------------------------|--------------------------|
|------------------------------|--------------------------|
|
| Gtr IV
|  H..                    E       +Q     Q     +H
|------------------------10----|-(10)---10----(10)--------|
|------------------------12----|-(12)---12----------------|
|-11---------------------11----|-(11)---11----------------|
|------------------------------|--------12----------------|
|------------------------------|--------------------------|
|------------------------------|--------------------------|


  Bm(type 4)          Bm(type 3)       A    B A
    H           E E E  E    +Q    +Q     E  E Q
    |           | | |  |     |     |     |  | |
    /           x x x  /     /     /     o  o o

            ~~~
    Q      +H.               E  E  E E   E  E E E
|------------------------|-------------------------|
|------------------------|-------------------------|
|------------------------|-------------------------|
|------------------------|-----------7---9--8-7-8--|
|------------------------|------7--9---------------|
|---9b10===(9)-----------|--10---------------------|
|
|   H..                E    +Q     Q    +H
|-(10)----------------10-|-(10)---10---(10)--------|
|---------------------12-|-(12)---12---------------|
|--11-----------------11-|-(11)---11---------------|
|--12--------------------|--------12---------------|
|------------------------|-------------------------|
|------------------------|-------------------------|


  D                                        D/A  A    B A
   H             E  E   E   E    +Q        +Q     E  E Q
   |             |  |   |   |     |         |     |  | |
   /             x  x   x   /     /         /     o  o o

            ~~~~~~~~                    ~~~
   E  E    +Q   +E  E   E   E     E    +Q     E   E  E E     +E
|-----------------------------|----------------------------------|
|-----8b10-(8)--(8)-----------|---8b10-(8)-------------8b10==(8)-|
|--7------------------------7-|----------------------7-----------|
|-------------------7---8-----|---------------7---8--------------|
|-----------------------------|----------------------------------|
|-----------------------------|----------------------------------|
|
|  H.                  +E   E    +Q         Q    +H
|-10------------------(10)-10-|-(10)-------10---(10)-------------|
|-10-----------------------10-|-(10)-------10--------------------|
|-11-----------------------11-|-(11)-------11--------------------|
|--------------------------12-|-(12)-------12--------------------|
|-----------------------------|----------------------------------|
|-----------------------------|----------------------------------|


  Gmaj7/D                    Gmaj7
   H            E     E   E   E
   |            |     |   |   |
   /            x     x   x   /

   |--3---|
  +S  S E E Q   Q.           +E
|---------------------------------|
|-(8)r8S7p5----[5]b7=========(5)r-|
|-----------7---------------------|
|---------------------------------|
|---------------------------------|
|---------------------------------|
|
|  H.                    +E   E
|-10--------------------(10)-10---|
|-12-------------------------12---|
|-12-------------------------12---|
|-12-------------------------12---|
|---------------------------------|
|---------------------------------|


  Gmaj7              D5(type 2) A5V
    Q        q         Q         Q
    |        |         |         |
    /        /         /         /

  Gtrs V, VI                         Gtr I
    s  s s s s s s s   s  s s s  s s S S
|----------------------------------------|
|----------------------------------------|
|---x--x-x-x-x-x-x-x---x--x-x-x--x-x-----|
|---x--x-x-x-x-x-x-x---x--x-x-x--x-x-----|
|---x--x-x-x-x-x-x-x---x--x-x-x--x-x-----|
|---x--x-x-x-x-x-x-x---x--x-x-x--x-x-5h6-|
|
|  +H                  Q         Q
|-(10)---------------(10)-------12-------|
|-(12)----------------10--------10-------|
|-(12)---------------------------9-------|
|-(12)---------------(12)----------------|
|----------------------------------------|
|----------------------------------------|


  Bm(type 2)           Bm(type 3)             A    B A
   Q       Q     E E E  E      +Q      +Q       E  E Q
   |       |     | | |  |       |       |       |  | |
   /       /     x x x  /       /       /       o  o o

                 ~                              ~~~~
   E   S S E S S Q   E  S S     E  S S  E S S   Q    E  S  S
|---------------------------|---------------------------------|
|---------------------------|--------------------------10-11--|
|---------------------------|-------------------7-------------|
|-----------------------7-8-|---9--7-8--9-7-8--------9--------|
|----------------5----------|---------------------------------|
|--7---5-6-7-5-6-----7------|---------------------------------|
|
|  H..                  E      +Q       Q      +H
|-10-------------------10---|-(10)-----10-----(10)------------|
|----------------------12---|-(12)-----12---------------------|
|----------------------11---|-(11)-----11---------------------|
|---------------------------|----------12---------------------|
|---------------------------|---------------------------------|
|---------------------------|---------------------------------|


  Bm(type 4)                         Bm(type
   H                    E     E   E   E
   |                    |     |   |   |
   /                    x     x   x   /

   E    S  S  E  S  S  +Q        +E.     S
|------------------------------------------|
|-12---10-11-12-10-12-(12)b15r==(12)----10-|
|------------------------------------------|
|------------------------------------------|
|------------------------------------------|
|------------------------------------------|
|
|  H..                                E
|-10---------------------------------10----|
|------------------------------------12----|
|-11---------------------------------11----|
|-12---------------------------------------|
|------------------------------------------|
|------------------------------------------|


  3)                      A       B A        D
   +Q           +Q          E     E Q         H                        E E   E     E
    |            |          |     | |         |                        | |   |     |
    /            /          o     o o         /                        x x   x     /

    E     E      E      E   Q       E    E    S    +S  E E    +S  S    E E   E     E
|----------------------------------------7-|-----------------------------------------|
|--10b12-10pb12-10pb12-10--10pb12r=========|=========================================|
|-----------------------------------9b11---|--9b11r(9)-7-9b11r(9)-9b11r7-9---9b11--7-|
|------------------------------------------|-----------------------------------------|
|------------------------------------------|-----------------------------------------|
|------------------------------------------|-----------------------------------------|
|
|  +Q            Q         +H                 H.                            +E     E
|-(10)----------10--------(10)-------------|-10----------------------------(10)---10-|
|-(12)----------12-------------------------|-10-----------------------------------10-|
|-(11)----------11-------------------------|-11-----------------------------------11-|
|---------------12-------------------------|--------------------------------------12-|
|------------------------------------------|-----------------------------------------|
|------------------------------------------|-----------------------------------------|


  D         D/A  A    B  A          Gmaj7/D             Gmaj7
   +Q       +Q     E   E  Q           H       E  E   E   E
    |        |     |   |  |           |       |  |   |   |
    /        /     o   o  o           /       x  x   x   /

                                      ~~~~~~~~~~~
    E  E     E E   E   E  E  E       +H      +Q.         E
|---------------------------12b14-|-(12)----(12)-----------|
|---------------------12----------|----------------------x-|
|---9--9b11--9-7---------10-------|----------------------x-|
|------------------9/-------------|------------------------|
|---------------------------------|------------------------|
|---------------------------------|------------------------|
|
|   Q        Q    +H                  H.            +E   E
|-(10)------10---(10)-------------|--10------------(10)-10-|
|-(10)------10--------------------|--12-----------------12-|
|--11-------11--------------------|--12-----------------12-|
|-(12)------12--------------------|--12-----------------12-|
|---------------------------------|------------------------|
|---------------------------------|------------------------|


                     D5(type 2) A5V
   +Q        Q         Q         Q
    |        |         |         |
    /        /         /         /

  Gtrs V, VI
    s  s s s s s s s   s  s s s  s s s s
|---x--x---------------------------------||
|---x--x-x-x-x-x-------------------------||
|---x--x-x-x-x-x-x-x---x-----------------||
|--------x-x-x-x-x-x---x--x-x-x--x-x-x-x-||
|----------------x-x---x--x-x-x--x-x-x-x-||
|-------------------------x-x-x--x-x-x-x-||
|
|  +H                  Q         Q
|-(10)---------------(10)-------12-------||
|-(12)----------------10--------10-------||
|-(12)---------------------------9-------||
|-(12)---------------(12)----------------||
|----------------------------------------||
|----------------------------------------||


 Bridge
  N.C.
  Wx8
|--------||
|--------||
|--------||
|--------||
|--------||
|--------||


 3rd Verse
  N.C.
  Gtr VI
   W           +W            +W            +W
|-----------|-------------|-------------|---------|
|-----------|-------------|-------------|---------|
|-----------|-------------|-------------|---------|
|-----------|-------------|-------------|---------|
|-14--------|-(14)--------|-(14)--------|-(14)----|
|-----------|-------------|-------------|---------|


  N.C.
   W           +W            H..        +E     H     Q   Q
|-----------|-------------|-----------------|----------------|
|-----------|-------------|-----------------|----------------|
|-----------|-------------|-----------------|----------------|
|-----------|-------------|-----------------|-------12-------|
|-----------|-------------|-----------------|-----------12---|
|-17--------|-(17)--------|-15---------(15)s|=12-------------|


  N.C.
   W           +W            +W            +E   E  E  E  E  E  E  E
|-----------|-------------|-------------|------17--------------------|
|-----------|-------------|-------------|---------19----17-----------|
|-----------|-------------|-------------|------------19----18----16--|
|-----------|-------------|-------------|---------------------19-----|
|-14--------|-(14)--------|-(14)--------|-(14)-----------------------|
|-----------|-------------|-------------|----------------------------|


  N.C.
                  ~~~~~~~~~~~~~~~~~
   +W            +W            +W
|-------------|-------------|-------------|
|-------------|-------------|-------------|
|-(16)--------|-(16)--------|-(16)--------|
|-------------|-------------|-------------|
|-------------|-------------|-------------|
|-------------|-------------|-------------|


   +E   E  E  E  E  E  E  E    +H      H
|------17-------------------|---------------|
|---------19----17----------|---------19----|
|-(16)-------19----18----16-|-(16)----------|
|---------------------19----|---------------|
|---------------------------|---------------|
|---------------------------|---------------|


  N.C.
   H     H       H      H       E   E  E  E  E  E  E  E    +H      H
|-------17----|--------14----|-----17-------------------|---------------|
|-17----------|--------------|-17-----19----17----------|---------19----|
|-------------|-16-----------|-----------19----18----16-|-(16)----------|
|-------------|--------------|--------------------19----|---------------|
|-------------|--------------|--------------------------|---------------|
|-------------|--------------|--------------------------|---------------|
|
| Gtr IV
|  <
|  W            +W             +W                           W
|-------------|--------------|--------------------------|---2-----------|
|--3----------|-(3)----------|-(3)----------------------|--(3)----------|
|--4----------|-(4)----------|-(4)----------------------|--(4)----------|
|--4----------|-(4)----------|-(4)----------------------|--(4)----------|
|-------------|--------------|--------------------------|---------------|
|-------------|--------------|--------------------------|---------------|


    N.C.
     H      H       H      H       E   E  E  E  E  E  E  E    +H      H
||---------17----|--------14----|-----17-------------------|----------------||
||o-17-----------|--------------|-17-----19----17----------|---------19----o||
||---------------|-16-----------|-----------19----18----16-|-(16)-----------||
||---------------|--------------|--------------------19----|----------------||
||o--------------|--------------|--------------------------|---------------o||
||---------------|--------------|--------------------------|----------------||
|
|   +W             +W             +W                          +W
||--(2)----------|-(2)----------|-(2)----------------------|--(2)-----------||
||o-(3)----------|-(3)----------|-(3)----------------------|--(3)----------o||
||--(4)----------|-(4)----------|-(4)----------------------|--(4)-----------||
||--(4)----------|-(4)----------|-(4)----------------------|--(4)-----------||
||o--------------|--------------|--------------------------|---------------o||
||---------------|--------------|--------------------------|----------------||


                                                          D5(Aype 2)
  Gtr II
   W                   W                            H     Q  Q
                                                          |  |
                                                          /  /

  Gtr I
   W                   W                            H     Q  Q
|-------------------|---------------------------|---------------||
|-------------------|---------------------------|---------------||
|-------------------|---------------------------|---------7-----||
|-------------------|---------------------------|---------7--7--||
|-------------------|---------------------------|---------5--7--||
|-------------------|---------------------------|------------5--||
|
| Gtr VI
|                                                   \5
|  H      Q.    +E     Q.    S      +S   +H        +H     H
|--------17----(17)S|=19----21b22==(21)-(21)----|-(21)----------||
|-17----------------|---------------------------|---------------||
|-------------------|---------------------------|---------------||
|-------------------|---------------------------|---------------||
|-------------------|---------------------------|---------------||
|-------------------|---------------------------|---------------||
|
| Gtr IV
| +W                  +W                           +H     Q  Q
|-(2)---------------|-(2)-----------------------|--(2)----------||
|-(3)---------------|-(3)-----------------------|--(3)----3-----||
|-(4)---------------|-(4)-----------------------|--(4)-------2--||
|-(4)---------------|-(4)-----------------------|--(4)-------2--||
|-------------------|---------------------------|---------------||
|-------------------|---------------------------|---------------||


   Out-Chorus
    B5(type 2)
    Gtr II
    E E E E E E E  E     E  E E  E E E E E
    | | | | | | |  |     |  | |  | | | | |
    / / / / / / /  /     /  / /  / / / / /

    Gtr I
    Q   Q   E E E  E    +Q    Q    E E Q
||--------------------|--------------------|
||o---------x-x-x--7--|-(7)---7\-----------|
||--7---7---x-x-x--7--|-(7)---7\-----------|
||--9---9---x-x-x--7--|-(7)---7\-----------|
||o-9---9---x-x-x-(9)-|-(9)----------------|
||--7---7-------------|------------5h7p5---|
|
|   Gtr IV
|   W                   +W
||--7-----------------|-(7)----------------|
||o-------------------|--------------------|
||--------------------|--------------------|
||--------------------|--------------------|
||o-------------------|--------------------|
||--------------------|--------------------|


                                             D5V
   E  E E E E E E  E     E  E E  E E E E E    E E E E E E E  E
   |  | | | | | |  |     |  | |  | | | | |    | | | | | | |  |
   /  / / / / / /  /     /  / /  / / / / /    / / / / / / /  /

   Q    Q   E E E  E    +Q    Q    E E Q      Q   Q   E E E  E
|---------------------|--------------------|---------------------|
|-----------x-x-x--7--|-(7)---7\-----------|--7---7---x-x-x--7---|
|--7----7---x-x-x--7--|-(7)---7\-----------|--7---7---x-x-x--7---|
|--9----9---x-x-x--7--|-(7)---7\-----------|--7---7---x-x-x--7---|
|--9----9---x-x-x-(9)-|-(9)----------------|--5---5---------(5)--|
|--7----7-------------|------------5h7p5---|---------------------|
|
| +W                    +W                    W
|-(7)-----------------|-(7)----------------|-10------------------|
|---------------------|--------------------|-10------------------|
|---------------------|--------------------|---------------------|
|---------------------|--------------------|---------------------|
|---------------------|--------------------|---------------------|
|---------------------|--------------------|---------------------|


                      1.,2.,3.
                       G5
   E  E E  E E E E E    E E E  E E E E  E
   |  | |  | | | | |    | | |  | | | |  |
   /  / /  / / / / /    / / /  / / / /  /

  +Q    Q    E E Q      Q   Q    E E E  E
|--------------------|-----------------(7)-|
|-(7)---7\-----------|--7---7\---x-x-x--7--|
|-(7)---7\-----------|--7---7\---x-x-x--7--|
|-(7)---7\-----------|--5---5\---x-x-x--5--|
|-(5)----------------|--5---5\-------------|
|------------5h7p5---|---------------------|
|
|  W                    W
|-10-----------------|-10------------------|
|-10-----------------|---------------------|
|--------------------|---------------------|
|--------------------|---------------------|
|--------------------|---------------------|
|--------------------|---------------------|


                             4.
  E5           D    A        G                  E5    D5(tApe 2)
    E  E  E  E  E E  E E      H       E E E E   Q  Q  Q   Q
    |  |  |  |  | |  | |      |       | | | |   |  |  |   |
    /  /  /  /  o /  o /      /       / / / /   /  /  /   /

                PM-----|
   +Q     Q     E E  E E  3x  Q  +Q   E E E E   q  q  Q   E +E
|--(7)---(7)--------------||----------x-x-x-x-|-7--7---------------||
|--(7)----7--------------o||--7--(7)--x-x-x-x-|-7--7---------------||
|--(7)----7---------------||--7--(7)--x-x-x-x-|-7--7--7\--2-(2)----||
|--(5)----5-----7-7--0-0--||--5--(5)----------|-5--5--7\--2-(2)/---||
|---------------5-5--0-0-o||--5---------------|-------5\--0-(0)----||
|-------------------------||------------------|--------------------||
|
|  +H           Q    Q    3x  W                 q  q  Q   Q
|-(10)--------------12----||------------------|-2--2--3------------||
|--------------10--------o||-12---------------|-3--3--3---2--------||
|--------------------9----||------------------|-4--4--2---2--------||
|-------------------------||------------------|-5--5------2--------||
|------------------------o||------------------|--------------------||
|-------------------------||------------------|--------------------||


  D5/A
  Gtr V
   E  E E E  E  E  E  E    E  E   E   E   E     E   E     E
   |  | | |  |  |  |  |    |  |   |   |   |     |   |     |
   /  / / /  /  /  /  /    /  /   /   /   /     /   /     /

  Gtr I
             <
                                          \0.5/     \0.5/
   H         Q     Q       Q     +Q      +Q        +Q
|-----------------------|-----------------------------------|
|-----------------<7>---|-<9>---(<9>)---(<9>)-----(<9>)-----|
|-----------<9>---------|-----------------------------------|
|-^9--------------------|-----------------------------------|
|-^9--------------------|-----------------------------------|
|-^7--------------------|-----------------------------------|
|
| Gtr IV
|  W                      +W
|-----------------------|-----------------------------------|
|-----------------------|-----------------------------------|
|--4--------------------|-(4)-------------------------------|
|--4--------------------|-(4)-------------------------------|
|--2--------------------|-(2)-------------------------------|
|-----------------------|-----------------------------------|
|
| Gtr II
|  Q.     E +Q     E  E    Q.         E  +Q         E     E
|-----------------------|-----------------------------------|
|-----------------------|-----------------------------------|
|-----------------------|-----------------------------------|
|------------------7--9-|---------------------------7-----9-|
|---------9-(9)---------|-------------9--(9)----------------|
|--7--------------------|--7--------------------------------|


                                                         A D5/A
    E   E   E   E   E     E   E   E      E   E E E  E  E E E
    |   |   |   |   |     |   |   |      |   | | |  |  | | |
    /   /   /   /   /     /   /   /      /   / / /  /  / o /

    \1/     \1/     \1.5/     \2/        \7_________|
   +Q      +Q      +Q        +Q         +H         +E  E E E
|-----------------------------------|-------------------------||
|-(<9>)---(<9>)---(<9>)-----(<9>)---|--(<9>)-------(9)--------||
|-----------------------------------|--------------------2-4--||
|-----------------------------------|--------------------2-4--||
|-----------------------------------|--------------------0-2--||
|-----------------------------------|-------------------------||
|
|   <
|   ~~~~~~~~~~~~~~~~~~~~~~~~~~~~~~~~~~~~~~~~~
|   W                                   +H.              E E
|-----------------------------------|-------------------------||
|-[10]------------------------------|-([10])------------------||
|--(4)------------------------------|---(4)--------------2-4--||
|--(4)------------------------------|---(4)--------------2-4--||
|--(2)------------------------------|---(2)--------------0-2--||
|-----------------------------------|-------------------------||
|
|   Q.          E  +Q         E   E      Q.      E +Q    E E
|-----------------------------------|-------------------------||
|-----------------------------------|-------------------------||
|-----------------------------------|-------------------------||
|-----------------------------7---9-|-------------------------||
|---------------9--(9)--------------|------------9-(9)---7-9--||
|---7-------------------------------|----7---------------5-7--||


  Gtr V
   E  E  E   E    E    E    E    E      E    E    E    E    E    E    E    E
|----10----(10)------(10)------(10)-|------(10)------(10)------(10)------(10)-*|
|-10-10-10-(10)-(10)-(10)-(10)-(10)-|-(10)-(10)-(10)-(10)-(10)-(10)-(10)-(10)-*|
|-----------------------------------|-----------------------------------------*|
|-----------------------------------|-----------------------------------------*|
|-----------------------------------|-----------------------------------------*|
|-----------------------------------|-----------------------------------------*|


Duration Legend
---------------
W - whole; H - half; Q - quarter; E - 8th; S - 16th; T - 32nd; X - 64th; a - acciaccatura
+ - note tied to previous; . - note dotted; .. - note double dotted
Uncapitalized letters represent notes that are staccato (1/2 duration)
Irregular groupings are notated above the duration line
Duration letters will always appear directly above the note/fret number it represents the
duration for.  Duration letters with no fret number below them represent rests.  Multi-
bar rests are notated in the form Wxn, where n is the number of bars to rest for.  Low
melody durations appear below the staff

Tablature Legend
----------------
 h   - hammer-on
 p   - pull-off
 b   - bend
 pb  - pre-bend
 r   - bend release (if no number after the r, then release immediately)
 /\  - slide into or out of (from/to "nowhere")
 s   - legato slide
 S   - shift slide
  - natural harmonic
[n]  - artificial harmonic
n(n) - tapped harmonic
 ~   - vibrato
 tr  - trill
 T   - tap
 TP  - trem. picking
 PM  - palm muting
\n/  - tremolo bar dip; n = amount to dip
 \n  - tremolo bar down
 n/  - tremolo bar up
/n\  - tremolo bar inverted dip
 =   - hold bend; also acts as connecting device for hammers/pulls
 <>  - volume swell (louder/softer)
 x   - on rhythm slash represents muted slash
 o   - on rhythm slash represents single note slash

Misc Legend
-----------
 |  - bar
||  - double bar
||o - repeat start
o|| - repeat end
*|  - double bar (ending)
 :  - bar (freetime)
 $  - Segno
 &  - Coda
Tempo markers -  = BPM(8/16=s8/s16), where s8 = swing 8ths, s16 = swing 16ths
Comments