Billy Idol - Rat Race Chords & Tabs

 

Rat Race Chords & Tabs

Billy Idol Chords & Tabs

Version: 1 Type: Tab

Rat Race Tab

   
-------------------------------------------------------------------------------
			     Rat Race - Billy Idol 
-------------------------------------------------------------------------------
Tabbed by: Ryan Armstrong
Email:

Tuning: Standard

This is rat race from devils playground i don't know the acoustic 
parts so i just started from the first chorus.

  Chorus
e|----------------------------------|
B|----------------------------------|play
G|-----------5----------------------| x2
D|-------2---5---5---7---x-x-x-x-7\-|
A|-2-2-2-2---3---5---7---x-x-x-x-7\-|
E|-0-0-0-0-------3---5---x-x-x-x-5\-|

e|---|
B|---|
G|---|
D|-2-|
A|-2-|
E|-0-|

  Second verse
e|--------------------------------------------------|
B|--------------------------------------------------|
G|------------5-5--5-5-5----------------------------|
D|-2-2--2-2-2-5-5--5-5-5-5-5--5-5-5--7-7--7---------|
A|-2-2--2-2-2-3-3--3-3-3-5-5--5-5-5--7-7--7-7-7-7-7-|
E|-0-0--0-0-0------------3-3--3-3-3--5-5--5-5-5-5-5-|
[ Tab from: http://www.guitartabs.cc/tabs/b/billy_idol/rat_race_tab.html ]
e|------------------------------------------------|
B|------------------------------------------------|
G|------------5-5--5-5-5----------------------9-9-|
D|-2-2--2-2-2-5-5--5-5-5-5-5--5-5-5--7-7------9-9-|
A|-2-2--2-2-2-3-3--3-3-3-5-5--5-5-5--7-7--7-7-7-7-|
E|-0-0--0-0-0------------3-3--3-3-3--5-5--5-5-----|
  Chorus
e|----------------------------------|
B|----------------------------------|play
G|-----------5----------------------| x2
D|-------2---5---5---7---x-x-x-x-7\-|
A|-2-2-2-2---3---5---7---x-x-x-x-7\-|
E|-0-0-0-0-------3---5---x-x-x-x-5\-|
 
e|---|
B|---|
G|---|
D|-2-|
A|-2-|
E|-0-|

 Bridge
e|---------------|
B|---------------|
G|-x-x-x-x-x-x---|
D|-x-x-x-x-x-x-2-|
A|-x-x-x-x-x-x-2-|
E|-------------0-|

e|-------------------------|
B|-------------------------|play 
G|-x-x-9-9-x-x-9-9-x-x-9-9-| x8
D|-x-x-9-9-x-x-9-9-x-x-9-9-| 
A|-7-7-7-7-7-7-7-7-7-7-7-7-|
E|-------------------------|

e|-------------------------------------------|
B|-------------------------------------------|
G|-------------------------------------------|
D|-x-x-x-x-7-5-7-5-7-----------2-------------|
A|-x-x-x-x-7-5-7-5-7---7-7-7-7-2--Pick-slide-|
E|-x-x-x-x-5-3-5-3-5---5-5-5-5-0-------------|
  Chorus
e|----------------------------------|
B|----------------------------------|play
G|-----------5----------------------| x4
D|-------2---5---5---7---x-x-x-x-7\-|
A|-2-2-2-2---3---5---7---x-x-x-x-7\-|
E|-0-0-0-0-------3---5---x-x-x-x-5\-|

e|---------------------------------------------------------|
B|---------------------------------------------------------|play
G|-----------5---------------------------------------------| x4
D|-------2---5---5---7-5-7-5-7-----------2---x-x-x-x-2---2-|
A|-2-2-2-2---3---5---7-5-7-5-7---5-5-5-5-2---x-x-x-x-2---2-|
E|-0-0-0-0-------3---5-3-5-3-5---7-7-7-7-0---x-x-x-x-0---0-|

thats that i think its pritty right so i'll see ya later.


| /  slide up
| \  slide down
| h  hammer-on
| p  pull-off
| ~  vibrato
| +  harmonic
| x  Mute note
===============================================================================