Bill Withers - Lean On Me Chords & Tabs

 

Bill Withers Chords & Tabs

Version: 2 Type: Tab 0 ratings
1 star 2 stars 3 stars 4 stars 5 stars
comments

Lean On Me Tab

-------------------------------------------------------------------------------
			     Lean On Me - Bill Withers
-------------------------------------------------------------------------------
Tabbed by:Jim Ashley
Email:jimbob629@att.net

Tuning:Normal tuning

[ Tab from: http://www.guitartabs.cc/tabs/b/bill_withers/lean_on_me_tab_ver_2.html ]
This a lower part to the song:
e|---------------------------------------------------------------------------|
B|---------------------------------------------------------------------------|
G|---------------------------------------------------------------------------|
D|-----------0--2--3-----3--2--0----------0--2--2--0--------------0--2--3----|
A|---3----3-----------------------3----3---------------3------3--------------|
E|---------------------------------------------------------------------------|

e|---------------------------------------------------------------------------|
B|---------------------------------------------------------------------------|
G|---------------------------------------------------------------------------|
D|---3--2--0-----------0---2-------------------------------------------------|
A|------------3----3----------2--3-------------------------------------------|
E|---------------------------------------------------------------------------|

This is played almost all the way through the song. Just listen to the song to
get the timing down.
=============================================================================
Comments