Bill Withers - Lean On Me Chords & Tabs

 

Bill Withers Chords & Tabs

Version: 4 Type: Bass Tab 0 ratings
1 star 2 stars 3 stars 4 stars 5 stars
comments

Lean On Me Bass Tab

-------------------------------------------------------------------------------
			     "Lean on Me - Bill Withers
-------------------------------------------------------------------------------

Tabbed By : Superkisseler

Tuning:Standard

Ok all of the other tabs out their aren't very good, so I will try to do one that is in 
same key as the guitar tab, becasue if you ever wanted to play this with an electric 
then you would not sound very good at all playing in totally different keys.

The entire song is basically:
[ Tab from: http://www.guitartabs.cc/tabs/b/bill_withers/lean_on_me_btab_ver_4.html ]
G|-------------------------------------------------------------------------|
D|-------------------------------------------------------------------------|
A|-3----3-5-7-8---8-7-5-3---3-5-7---7-5------------------------------------|
E|-------------------------------------------------------------------------|

G|-------------------------------------------------------------------------|
D|-------------------------------------------------------------------------|
A|-3----3-5-7-8---8-7-5-3---3-5-7-------3----------------------------------|
E|-----------------------------------3-------------------------------------|


Outro:
G|-------------------------------------------------------------------------|
D|-------------------------------------------------------------------------|
A|----3--------------------------------------------------------------------|
E|-3-----------------------------------------------------------------------|
Comments