Bill Withers - Lean On Me Chords & Tabs

 

Lean On Me Chords & Tabs

Bill Withers Chords & Tabs

Version: 1 Type: Bass Tab 0 ratings
1 star 2 stars 3 stars 4 stars 5 stars
comments

Lean On Me Bass Tab

   
Lean on Me written by Bill Withers

Transcribed by Robert Pasley

Standard tuning (low to high; E,A,D,G)
[ Tab from: http://www.guitartabs.cc/tabs/b/bill_withers/lean_on_me_btab.html ]
G|--------0--1---1--0---------------0-0-----
D|1---1-3--------------3--1---1--3---------3
A|------------------------------------------
E|------------------------------------------

G|---------0-1---1-0-----------0----
D|1---1-3------------3-1---1-3-----1
A|-------------------------------1--
E|----------------------------------

If you have any Nine Inch Nails, please send it too me at
marilynmanson7@kornfreak.com Thanks

R.C.P.
Comments