Bill Withers - Just The Two Of Us Chords & Tabs

 

Just The Two Of Us Chords & Tabs

Bill Withers Chords & Tabs

Version: 2 Type: Bass Tab 0 ratings
1 star 2 stars 3 stars 4 stars 5 stars
comments

Just The Two Of Us Bass Tab

   
Artist: Bill Withers    
Song: Just the Two of Us

Tabbed by: Alex Kehoe
www.alexkehoe.co.uk


INTRO 
G|--------------9--10h 12--10-------------------9-10|
D|11h13-11--10----------------13---11h13-11--10-----|
A|------------------------------11------------------|
E|--------------------------------------------------|


VERSE ONE
G|-------------------------------------------|
D|---------2--3h5-3-------------2-3----------|
A|4h6-4--3----------6---4h6-4-3------------3-|
E|--------------------4-------------11-24----|

G|---------------------------------------|
D|---------2--3h5-3-------------2-3------|
A|4h6-4--3----------6---4h6-4-3-------23-|
E|--------------------4------------------|


CHORUS
G|--6----5----------------------6----5--------------------|
D|-----------------3-2-1------------------------3--3-----3|
A|4----3----------------------4----3----------------------|
E|-------------------------4-------------1-1----------1---|

G|-------6----5---------------------6----5-------10\x10\|
D|----------------3-2-1---------------------------------|
A|2---4----3-------------------------4----3-------------|
E|-----------------------------4-------------1-1--------|


VERSE TWO
G|-------------------------------------------------|
D|-----------2--3h5-3-----------------2-3----------|
A|4h6-4--3--------------6---4h6-4-3--------------3-|
E|------------------------4-----------------1--4---|

G|--------------------------------------------------|
D|-----------2--3h5-3--------------2-3----------19\-|
A|4h6-4--3-------------6---4h6-4-3--------------20\-|
E|-----------------------4--------------------------|


CHORUS
G|--6----5---------------------6----5-----------------|
D|-------------3-2-1-------------------------3-------3|
A|4----3---------------------4----3-------------------|
E|------------------------4-------------1-1---1--1----|

G|------6----5---------------------6----5-----------|
D|---------------3-2-1---------------------------3--|
A|-2--4----3---------------------4----3--------3----|
E|--------------------------4-------------1-1-------|

[ Tab from: http://www.guitartabs.cc/tabs/b/bill_withers/just_the_two_of_us_btab_ver_2.html ]
MIDDLE EIGHT
G|----------------------|
D|----------------------|
A|-4--3--2--1-----------|
E|------------5--4---\2-|

G|------------------\18----|
D|-------------------------|
A|-4--3--2--1--------------|
E|------------5--4-------2-|

G|-------------9--10h 12--10----------------------9--X-10|
D|11h13-11--10----------------13---11h13-11--10----------|
A|-------------------------------11----------------------|
E|-------------------------------------------------------|


VERSE
G|------------------------------------------------|
D|-------------2--3h5-3-------------2-3-----5-----|
A|---\4h6-4--3----------6---4h6-4-3-------3-----6-|
E|------------------------4------------------4----|

G|---------------------------------------------|
D|---------2--3h5-3-------------2-33-----------|
A|4h6-4--3----------6---4h6-4-3--------------3-|
E|--------------------4--------------1-1-3-4---|


CHORUS/ OUTRO
G|--6----5----------------------6----5----------------|
D|------------3--2---1---------------------5---5---5--|
A|4----3----------------------4----3------------------|
E|-------------------------4-------------1---1---1---1|
  s p  s  p   s  s   s     s s p  s p    s p s p s p s

G|--6----5----------------------6----5---|
D|------------3--2---1-------------------|
A|4----3---------------------4----3------|
E|-------------------------4------------1|
  s p  s p    s  s   s     s s p  s p   s

G|--6----5------10--9---8--------6---5-------------------|
D|---------------------------6----------------3---3---3--|
A|4----3------8---7---6--------4---3---------------------|
E|-------------------------4-------------1xx1---x---x---3|
  s p  s p    s p s p s p  s p s p s p   s  s p s p s p s


REPEAT UNTIL THE END
G|--6----5---------------------6----5----|
D|------------3--2---1-------------------|
A|4----3---------------------4----3------|
E|------------------------4-------------1|
  s p  s p    s  s   s    s  s p  s p  s


| /  slide up
| \  slide down
| h  hammer-on 
| p  pull-off 
| ~  vibrato 
| +  harmonic 
| x  Mute note

Tabbed by: Alex Kehoe
www.alexkehoe.co.uk

Comments