Bill Withers - Aint No Sunshine Chords & Tabs

 

Bill Withers Chords & Tabs

Version: 4 Type: Tab 0 ratings
1 star 2 stars 3 stars 4 stars 5 stars
comments

Aint No Sunshine Tab

   
Ain't No Sunshine
(Bill Withers)
Arr. Eva Cassidy, tab Sylvain Roca

Capo: 5
                                  F6
E||----------------------------|--3---------------------|
B||-----------0h1--0-----------|--1-------0-----0-------|
G||-----0-0h2---------0--2-----|--2-------0-----0-------|
D||--2----------------------2--|----------0-----0-------|
A||----------------------0-----|-------------------0----|
E||----------------0-----------|-------0-----3----------|

                               F6
----------------------------|--3----------------------|
-----------0h1--0-----------|--1-------0-----0--------|
-----0-0h2---------0--2-----|--2-------0-----0--------|
--2----------------------2--|----------0-----0--------|
----------------------0-----|-------------------0---0-|
----------------0-----------|-------0-----3-----------|

---------0----0--0--------|------------x-------------|
---------1----1--1--3-----|--3--1h3h1--x--4--4--3----|
--0h2---------------0--0--|------------x--3--3--2----|
--0h2---------------------|------------x-------------|
------0-------------------|------------x-------------|
--------------------0-----|---------0-----2-----1----|

--------------------------|----------------------------|----------------------|
--3--3--3-----1-----------|--------------------1-------|----------------------|
--2--2--2-----------------|--0h2--2--2-----0h2---------|----------------------|
--------------------------|--0h2--2--2-----0h2---------|--------------------2-|
--------------------0---0-|-----------------------0----|----------------0-----|
--1--1--0--0--0---0-------|----------0---0-------------|----------0--3--------|

|---3--3-0--------------------||--0----0----0---------|-----------------------|
|---1--1-0----0-----0---------||--1----1----1----3----|--3-----1----4----3----|
|*--2--2-0----0-----0--------*||-----------------0----|--0----------3----2----|
|*------------0-----0------2-*||----------------------|-----------------------|
|----------------------0------||-------0--------------|-----------------------|
|----------0-----3------------||------------0----0----|--0---0-0----2----1----|

-------------------------|--0---------------------|----------------------|
--3-----3-----1----------|--1-------0-----0-------|----------------------|
--2-----2----------------|--2-------0-----0-------|----------------------|
-------------------------|--2-------0-----0-------|--------------------2-|
--------------------0----|-------------------0----|----------------0-----|
--1--1--0--0--0---0------|-------0-----3----------|----------0--3--------|

                              2x
|---3--3-0--------------------||--0----0----0---------|-----------------------|
|---1--1-0----0-----0---------||--1----1----1----3----|--3-----1----4----3----|
|*--2--2-0----0-----0--------*||-----------------0----|--0----------3----2----|
|*------------0-----0------2-*||----------------------|-----------------------|
|----------------------0------||-------0--------------|-----------------------|
|----------0-----3------------||------------0----0----|--0---0-0----2----1----|

-------------------------|--0---------------------|--0--3--5--8--7--3--0----|
--3-----3-----1----------|--1-------0-----0-------|--------------------1----|
--2-----2----------------|--2-------0-----0-------|--------------------2----|
-------------------------|--2-------0-----0-------|--------------------2----|
--------------------0----|-------------------0----|--------------------0----|
--1--1--0--0--0---0------|-------0-----3----------|--0--3--5--8--7--3-------|

--0-0-0-0-------------0----|--0-3--5--8---7--3--0----|
--1-1-1-1----0-----0--1----|--------------------1----|
--2-2-2-2----0-----0--2----|--------------------2----|
--2-2-2-2----0-----0--2----|--------------------2----|
--0-0-0-0-------------0----|--------------------0----|
----------0-----3----------|--0-3--5--8---7--3-------|
[ Tab from: http://www.guitartabs.cc/tabs/b/bill_withers/aint_no_sunshine_tab_ver_4.html ]
--0-0-0-0-------------------|---------0----0--0--------|
--1-1-1-1----0-----0--------|---------1----1--1--3-----|
--2-2-2-2----0-----0--------|--0h2---------------0--0--|
--2-2-2-2----0-----0--------|--0h2---------------------|
--0-0-0-0-------------0---0-|------0-------------------|
----------0-----3-----------|--------------------0-----|

--------------------------|--------------------------|
--3--1h3-3-----4--4--3----|--3--3--3-----1-----------|
---------------3--3--2----|--2--2--2-----------------|
--------------------------|--------------------------|
--------------------------|--------------------0---0-|
---------0--0--2-----1----|--1--1--0--0--0---0-------|

----------------------------|----------0-----------|
--------------------1-------|----------0-----------|
--0h2--2--2-----0h2---------|----------0-----------|
--0h2--2--2-----0h2---------|--------------------2-|
-----------------------0----|----------------0-----|
----------0---0-------------|----------0--3--------|

|---3--3-0--------------------||--3--3-0-------------------|
|---1--1-0----0-----0---------||--1--1-0----0-----0--------|
|*--2--2-0----0-----0--------*||--2--2-0----0-----0--------|
|*------------0-----0------2-*||------------0-----0--------|
|----------------------0------||---------------------0---0-|
|----------0-----3------------||---------0-----3-----------|

---------0----0--0--------|--------------------------|
---------1----1--1--3-----|--3--1h3-3-----4--4--3----|
--0h2---------------0--0--|---------------3--3--2----|
--0h2---------------------|--------------------------|
------0-------------------|--------------------------|
--------------------0-----|---------0--0--2-----1----|

                                                          Tap
--------------------------|----------------------------|--------------------|
--3--3--3-----1-----------|--------------------1-------|--------------------|
--2--2--2-----------------|--0h2--2--2-----0h2---------|--------------------|
--------------------------|--0h2--2--2-----0h2---------|--------------------|
--------------------0---0-|-----------------------0----|--------------------|
--1--1--0--0--0---0-------|----------0---0-------------|--x--------x--------|

--------------------|----------------------|------------0----------|
--------------------|----------------------|------------1----------|
--------------------|----------------------|------------2----------|
--------------------|----------------------|------------2----------|
--------------------|----------------------|------------0----------|
------x----x--------|--x----x----x----x----|--x----x----0----x--x--|

  Dm
--1----1--1-1-1----1--1-1-|-------------------------|-------3----------------|
--3----3--3-3-3----3--3-3-|--3----3-----3-----1-----|-------1-------0-----0--|
--2----2--2-2-2----2--2-2-|--2----2-----2-----------|-------2-------0-----0--|
--0----0--0-0-0----0--0-0-|-------------------------|-------2-------0-----0--|
--------------------------|-------------------------|--0---------------------|
--------------------------|--1----1--1--0--0--0---0-|------------0-----3-----|

|--------------------------|-------3--3-0--------------||
|---3----3-----3-----1-----|-------1--1-0----0-----0---||
|*--2----2-----2-----------|-------2--2-0----0-----0--*||
|*-------------------------|-----------------0-----0--*||
|--------------------------|--0------------------------||
|---1----1--1--0--0--0---0-|--------------0-----3------||

-------------------------|---------------------------|--0----------------||
--3----3-----3-----1-----|----------------0h1--0-----|--1----------------||
--2----2-----2-----------|----------0-0h2---------0--|--2----------------||
-------------------------|-------2-------------------|--2----------------||
-------------------------|--0------------------------|--0----------------||
--1----1--1--0--0--0---0-|---------------------0-----|-------------------|| 
Comments