Bill Withers - Aint No Sunshine Chords & Tabs

 

Aint No Sunshine Chords & Tabs

Bill Withers Chords & Tabs

Version: 1 Type: Tab 0 ratings
1 star 2 stars 3 stars 4 stars 5 stars
comments

Aint No Sunshine Tab

   
-------------------------------------------------------------------------------
AIN’T NO SUNSHINE- Bill Withers
-------------------------------------------------------------------------------
AIN’T NO SUNSHINE- Bill Withers
Tabbed by: Rosario MARINEO
Email: ros_neo@hotmail.com

This is my first tab…
It seems to be ok, no? If the answer is “NOOO!!!”, this is my e-mail address :
 ros_neo@hotmail.com

Tuning:
        Am               Em               G              Am
e|---------0-0------------0---------------1---------------------0-0----------0-0------|
B|--------1-1-------------0---------------0---------------------1--1---------1-1------|
G|------------------------------------------------------------------------------------|
D|------------------------------------------------------------------------------------| (x2)
A|----0-------------------------------------------------0-----------------------------|
E|-------------------0---------------3------------------------------------------------|
[ Tab from: http://www.guitartabs.cc/tabs/b/bill_withers/aint_no_sunshine_tab.html ]
       Dm7                                          G
e|----------2--2------------2-----2----------------------1--1------ -------1-------1--|
B|----------2--2------------2-----2-----------------------0--0-------------0------0---|
G|------------------------------------------------------------------------------------|
D|----0---------------0---------------------------------------------------------------|
A|-------------------------------0-------------------------------------------------2--|
E|------------------------------------------------1-----------------------1-----------|

        Am               Em               G              Am
e|---------0-0------------0---------------1---------------------0-0----------0-0------|
B|--------1-1-------------0---------------0---------------------1--1---------1-1------|
G|------------------------------------------------------------------------------------|
D|------------------------------------------------------------------------------------| (x2)
A|----0-------------------------------------------------0-----------------------------|
E|-------------------0---------------3------------------------------------------------|

===============================================================================
Comments