Bill Withers - Aint No Sunshine Chords & Tabs

 

Bill Withers Chords & Tabs

Version: 2 Type: Bass Tab 0 ratings
1 star 2 stars 3 stars 4 stars 5 stars
comments

Aint No Sunshine Bass Tab

Aint no sunshine
by Bill Withers

g------------------------------------------------------|
d-----------------------------5-7----------------------|
a---------------------0-3-5-7-----7-6-5----------------|
e5--0--3--5---3h0-3-5-------------------0-3-4-5--0-3-5-|


g------------------------------------------------------------------|
d---------------------------------------5-7------------------------|
a-------------------------------0-3-5-7-----7-6-5------------------|
e3h0-3-5--0-3-5--3h0-3-5--0-3-5-------------------0-3-4-5--0-3-5---|

* - Starts the "I Know, I Know" part
[ Tab from: http://www.guitartabs.cc/tabs/b/bill_withers/aint_no_sunshine_btab_ver_2.html ]
g-------------------------------------------------------------------|
d--------------------------------------------5-7--------------------|
a------------------------------------0-3-5-7-----765----------------|
e5-0-3-5-3h0-3-5-0-3-5-3h0-3-5-0-3-5-----------------0-3-4-5--0-3-5-|

g----------------------------------------------------------------|
d----------------------------------------------------------------|
a----------------------------------------------------------------|
e3h0-3-5--0-3-5--3h0-3-5--0-3-5-3h0-3-5--0-3-5-------------------|


There it is folks from beginning to end.  Please forgive me as this is my first tab 
 You will have to listen to the song to get the exact timing as I know nothing about 
music or Music Theory.  I just like this song and wanted to pass this along.
Comments