Bill Withers - Aint No Sunshine Chords & Tabs

 

Bill Withers Chords & Tabs

Version: 1 Type: Bass Tab 0 ratings
1 star 2 stars 3 stars 4 stars 5 stars
comments

Aint No Sunshine Bass Tab

Aint no sunshine when she's gone
by Bill Withers
[ Tab from: http://www.guitartabs.cc/tabs/b/bill_withers/aint_no_sunshine_btab.html ]
g--------------------
d--------------------
a--------------------
e5--0--3--5---3ho-3-5
this is the main verse part
the three hammer off may be a
1 hammer off but its quick enogh not to matter

this is the key change

g-------------------------
d--------5-7--------------
a0-3-5-7-----7-6-5--------
e------------------03-4-5-

tab by robbie mcclendon
Comments