Bill Laswell - Babylon Ghost Chords & Tabs

 

Babylon Ghost Chords & Tabs

Bill Laswell Chords & Tabs

Version: 1 Type: Bass Tab 0 ratings
1 star 2 stars 3 stars 4 stars 5 stars
comments

Babylon Ghost Bass Tab

Song:   Babylon Ghost
Artist: Bill Laswell
Album:  Sacred System Chapter One-DUB-Book of Entrance
Tabbed  by: Jim Lechocki
e-mail: Jlechocki@yahoo.com
[ Tab from: http://www.guitartabs.cc/tabs/b/bill_laswell/babylon_ghost_btab.html ]
E--3-3--3--3------------3-3--3--3---------------3-3--3--3----------E
A-------------3--5-----------------3--5-----5--------------3--5----A
D-------------------3--------------------3-----------------------3-D
G------------------------------------------------------------------G

E--3--3--3-3-3------------E
A--------------3--3-------A
D-------------------5--5--D
G-------------------------G


Repeat this over and over. Listen to the song to get the rhythm. 
It seems right to me, but there seems to be some small variations 
with the 'G' note. 

Jim out. 
Comments