Bile - In League Chords & Tabs

 

In League Chords & Tabs

Bile Chords & Tabs

Version: 2 Type: Tab 0 ratings
1 star 2 stars 3 stars 4 stars 5 stars
comments

In League Tab

Band: Bile
Song: In League
Tabbed by: Josh Rankin
Ok this is an easy song, you have to listen to the song to get the 
timing right, but here it goes.
Tuning: Dropped D
HEAVY DISTORTION!!!
This is after the drummer hits his solo 16 times
#=harmonic on 1st fret
Part One
|----------------------------------------------------|
|----------------------------------------------------|
|----------------------------------------------------|
|-0010-0010-0010-0010-0010-0010-0010-0010------------|
|-0010-0010-0010-0010-0010-0010-0010-0010------------|
|-0010-0010-0010-0010-0010-0010-0010-0010------------|
Part Two
|----------------------------------------------------|
|----------------------------------------------------|
|----------------------------------------------------|
|0010-0-3---0010-0-3---------------------------------|
|0010-0-1---0010-0-1---------------------------------|
|0010-0-----0010-0-----------------------------------|
"Yow..."  "Yeah!!" Do this twice then...
Part Three
|----------------------------------------------------|
|----------------------------------------------------|
|----------------------------------------------------|
|-001-5-1--------------------------------------------|
|-001-3-1--------------------------------------------|
|-001---1--------------------------------------------|
"Pretty boy with a gun!" etc....
Part Four
|----------------------------------------------------|
|----------------------------------------------------|
|----------------------------------------------------|
|-0015100151-----------------------------------------|
|-0013100131-----------------------------------------|
|-001-1001-1-----------------------------------------|
"We are the dead we are in league we are the doctors of new self 
esteem!"
Part Five
|----------------------------------------------------|
|----------------------------------------------------|
|----------------------------------------------------|
|-0010-####------------------------------------------|
|-0010-####------------------------------------------|
|-0010-####------------------------------------------|
x????

The song goes
Part 1
Part 2
Part 3
Part 4
Part 5
Part 3
Part 4
I don't know this part figure it out yourself. lol!
Part 4
If you have any comments or suggestions e-mail me at 
jo66_2000@excite.com
[ Tab from: http://www.guitartabs.cc/tabs/b/bile/in_league_tab_ver_2.html ]
Comments