Bikini Kill - I Like Fucking Chords & Tabs

 

I Like Fucking Chords & Tabs

Bikini Kill Chords & Tabs

Version: 1 Type: Tab 0 ratings
1 star 2 stars 3 stars 4 stars 5 stars
comments

I Like Fucking Tab

Stolen from toughcookie
Tabbed by.. Diet_Grrl


Bikini Kill is best!... Tobi Vail! This tab is the best I've ever seen. Thanks toughcookie

(Intro)
e---------------------|----------------------|
B---------------------|----------------------|
G-9---7-7---11---9-9--|--9---7-7---11---9-9--|
D-9---7-7---11---9-9--|--9---7-7---11---9-9--|
A-7---5-5----9---7-7--|--7---5-5----9---7-7--|
E---------------------|----------------------|

(hey do you believe in anything...)
e--------------------|
B--------------------|
G-9---7-7---11---9-9-|
D-7---7-7---11---9-9-|
A-7---5-5----9---7-7-|
E--------------------|

e------------------------------------|
B------------------------------------|
G-9---7-7---11---11------------------|
D-9---7-7---11---11-7-7-7-7-7-7-7-7--|
A-7---5-5----9----9-5-5-5-5-5-5-5-5--|
E-------------------5-5-5-5-5-5-5-5--|

(it gets so hard...)
e---------------------|---------------------|---------------------|
B---------------------|---------------------|---------------------|
G-9---9-9---9-9---7-7-|-9---9-9---9-9---7-7-|-9---9-9---9-9---7-7-|
D-9---9-9---9-9---7-7-|-9---9-9---9-9---7-7-|-9---9-9---9-9---7-7-|
A-7---7-7---7-7---5-5-|-7---7-7---7-7---5-5-|-7---7-7---7-7---5-5-|
E---------------------|---------------------|---------------------|

e------------------------|
B------------------------|
G-9---9-9---9-9---11-11--|
D-9---9-9---9-9---11-11--|
A-7---7-7---7-7----9--9--|
E------------------------|

(of / baby you know...)
e----------------|----------------|----------------|--------------|
B----------------|----------------|----------------|--------------|
G----------------|----------------|----------------|--------------|
D-7---7---7---7--|-7---7---7---7--|-7---7---7---7--|-7---7---7---7|
A-7---7---7---7--|-7---7---7---7--|-7---7---7---7--|-7---7---7---7|
E-5---5---5---5--|-5---5---5---5--|-5---5---5---5--|-5---5---7---5|

e----------------------|----------------------|----------------------|
B----------------------|----------------------|----------------------|
G-9---9-9---9-9---7-7--|-9---9-9---9-9---7-7--|-9---9-9---9-9---7-7--|
D-9---9-9---9-9---7-7--|-9---9-9---9-9---7-7--|-9---9-9---9-9---7-7--|
A-7---7-7---7-7---5-5--|-7---7-7---7-7---5-5--|-7---7-7---7-7---5-5--|
E----------------------|----------------------|----------------------|

e-----------------------|
B-----------------------|
G-9---9-9---9-9---11-11-|
D-9---9-9---9-9---11-11-|
A-7---7-7---7-7----9--9-|
E-----------------------|
[ Tab from: http://www.guitartabs.cc/tabs/b/bikini_kill/i_like_fucking_tab.html ]
e----------------|----------------|----------------|--------------|
B----------------|----------------|----------------|--------------|
G----------------|----------------|----------------|--------------|
D-7---7---7---7--|-7---7---7---7--|-7---7---7---7--|-7---7---7---7|
A-7---7---7---7--|-7---7---7---7--|-7---7---7---7--|-7---7---7---7|
E-5---5---5---5--|-5---5---5---5--|-5---5---5---5--|-5---5---7---5|


e--------------------|--------------------|--------------------|
B--------------------|--------------------|--------------------|
G-9---7-7---11---9-9-|-9---7-7---11---9-9-|-9---7-7---11---9-9-|
D-7---7-7---11---9-9-|-7---7-7---11---9-9-|-7---7-7---11---9-9-|
A-7---5-5----9---7-7-|-7---5-5----9---7-7-|-7---5-5----9---7-7-|
E--------------------|--------------------|--------------------|

e------------------------------------|
B------------------------------------|
G-9---7-7---11---11------------------|
D-9---7-7---11---11-7-7-7-7-7-7-7-7--|
A-7---5-5----9----9-5-5-5-5-5-5-5-5--|
E-------------------5-5-5-5-5-5-5-5--|

e-----------------------|-----------------------|-----------------------|
B-----------------------|-----------------------|-----------------------|
G-9---9-9---9-9---11-11-|-9---9-9---9-9---11-11-|-9---9-9---9-9---11-11-|
D-9---9-9---9-9---11-11-|-9---9-9---9-9---11-11-|-9---9-9---9-9---11-11-|
A-7---7-7---7-7----9--9-|-7---7-7---7-7----9--9-|-7---7-7---7-7----9--9-|
E-----------------------|-----------------------|-----------------------|

e------------------------|
B------------------------|
G-9---9-9---9-9---11-11--|
D-9---9-9---9-9---11-11--|
A-7---7-7---7-7----9--9--|
E------------------------|

e----------------|----------------|----------------|--------------|
B----------------|----------------|----------------|--------------|
G----------------|----------------|----------------|--------------|
D-7---7---7---7--|-7---7---7---7--|-7---7---7---7--|-7---7---7---7|
A-7---7---7---7--|-7---7---7---7--|-7---7---7---7--|-7---7---7---7|
E-5---5---5---5--|-5---5---5---5--|-5---5---5---5--|-5---5---7---5|


e--------------------|--------------------|--------------------|
B--------------------|--------------------|--------------------|
G-9---7-7---11---9-9-|-9---7-7---11---9-9-|-9---7-7---11---9-9-|
D-7---7-7---11---9-9-|-7---7-7---11---9-9-|-7---7-7---11---9-9-|
A-7---5-5----9---7-7-|-7---5-5----9---7-7-|-7---5-5----9---7-7-|
E--------------------|--------------------|--------------------|


e----------------------||
B----------------------||
G-9---7-7---11-11-9----||
D-9---7-7---11-11-9-7--||
A-7---5-5----9--9-7-7--||
E-------------------5--||
Comments