Bigwig - Sink Or Swim Chords & Tabs

 

Sink Or Swim Chords & Tabs

Bigwig Chords & Tabs

Version: 2 Type: Bass Tab 0 ratings
1 star 2 stars 3 stars 4 stars 5 stars
comments

Sink Or Swim Bass Tab

   
I think the other tab is a bit weird, so I made another one... I think it sounds 
you be the judge.

Intro:
G----------------------------------------|
D----------------------------------------| (h = hammer-on)
A--------------55-----------------55-----|
E--0h2-0h2-0h2----55--0h2-0h2-0h2----55--|

G----------------------------------|
D----------------------------------| (X2)
A--------------5-4-------------5-4-|
E--0h2-0h2-0h2-----0h2-0h2-0h2-----|

Verse:
G------------------------------------------------------------------|
D------------------------------------------------------------------| (X2)
A----------------------------2-54----------------------------------|
E--22-2-22--55-5-55--00-0-00------22-2-22--55-5-55--0-000000000000-|

Chorus:
("Sink...or...swim...")
G-------------------------------------------------------------|
D-------------------------------------------------------------|
A-------------------------------------------------------------|
E-22222222222222222222222222222222222222222222222222222222222-

("wooohooohooo...")
G------------------------------------------------|
D------------------------------------------------| (X2)
A--------4-4-4-------7-7-7---------4-4-4-------7-|
E--2-2-2-------5-5-5---------2-2-2-------5-5-5---|
[ Tab from: http://www.guitartabs.cc/tabs/b/bigwig/sink_or_swim_btab_ver_2.html ]
After "they all come tumbling down":
G-----------------------------------------------------------|
D-----------------------------------------------------------|
A-----------------------------------------------------------|
E-222222222222222222222222222222222222222222222222222222222-

G--------------------------|
D--------------------------|
A------5-----5-----5-5/777-| (/ = slide up)
E--222----22----22---------|

("Yeah!..."):
G--------------------------|
D--------------------------| (X4)
A------555-444-------------|
E--222---------444-555-777-|

G---------------------------------------|
D---------------------------------------| (X2)
A----55-44-------------55-44------------|
E--2-------44-55-7---2-------44-55-5555-|

Bridge:
G------|
D------|(played many times, listen to the song for number of times and rythm)
A------|
E--0h2-

During the guitar-solo-ish thingy, do this:
G--------------------------|
D--------------------------|
A----------------------5-5-|
E--2r----2r---2r---2-2-----| (r = rest)

Now repeat everything starting from the verse (NOT the intro), leave out the bridge, 
this instead of the bridge:
G-------------|
D-------------| (X4)
A-----------5-|
E-0-222-0-2---|

G------------------------|
D------------------------| (X2)
A------------------------|
E--0h2-0h2-0h2-0h2-0h2-2-|

End:
G------|
D------|
A------|
E--5\0- (\ = slide down)

This is a great song, played pretty fast, but really fun to play when you have learned 
Give it a try!
Comments