Big Tymers - This Is How We Do Chords & Tabs

 

This Is How We Do Chords & Tabs

Big Tymers Chords & Tabs

Version: 1 Type: Tab 1 rating
1 star 2 stars 3 stars 4 stars 5 stars
comments

This Is How We Do Tab

   
#----------------------------------PLEASE NOTE---------------------------------#
#This file is the author's own work and represents their interpretation of the #
#song. You may only use this file for private study, scholarship, or research. #
#------------------------------------------------------------------------------##

This tab is very accurate in my opinion, accentuate the slides

Gtr I (E A D G B E) - 'Untitled'

  Gtr I

INTRO
|-/9--9-------9-|-/9-9-9-----|
|-/9--9--9--7-9-|-/9-9-9-7-9-|
|-/9--9--9--7-9-|-/9-9-9-7-9-|
|-/9--9--9--7-9-|-/9-9-9-7-9-|
|-/9--9---------|-/9-9-9-----|
|---------------|------------|

CHORUS
|----------------|
|----7-9----7-9--|
|-11-7-9-11-7-9--|
|-11-7-9-11-7-9--|
|-12-----12------|
|----------------|
[ Tab from: http://www.guitartabs.cc/tabs/b/big_tymers/this_is_how_we_do_tab.html ]
VERSES
|-/9-9-----------/9-9-12S14------|
|-/9-9-10S12-7-9-/9-9-12S14-7-9--|
|-/9-9-11S13-7-9-/9-9-------7-9--|
|-/9-9-------7-9-/9-9-------7-9--|
|-/9-9-----------/9-9------------|
|--------------------------------|


Tablature Legend
----------------
 h   - hammer-on
 p   - pull-off
 b   - bend
 pb  - pre-bend
 r   - bend release (if no number after the r, then release immediately)
 /  - slide into or out of (from/to "nowhere")
 s   - legato slide
 S   - shift slide
  - natural harmonic
[n]  - artificial harmonic
n(n) - tapped harmonic
 ~   - vibrato
 tr  - trill
 T   - tap
 TP  - trem. picking
 PM  - palm muting
n/  - tremolo bar dip; n = amount to dip
 n  - tremolo bar down
 n/  - tremolo bar up
/n  - tremolo bar inverted dip
 =   - hold bend; also acts as connecting device for hammers/pulls
   - volume swell (louder/softer)
 x   - on rhythm slash represents muted slash
 o   - on rhythm slash represents single note slash
Comments