Big Sugar - Heart Refuse To Pound Chords & Tabs

 

Heart Refuse To Pound Chords & Tabs

Big Sugar Chords & Tabs

Version: 1 Type: Tab 0 ratings
1 star 2 stars 3 stars 4 stars 5 stars
comments

Heart Refuse To Pound Tab

Artist: Big Sugar
Song: Heart Refuse to Pound
Tabber: Samuel Scheideman
Comments: Man this song is spooky but I like! 
Tuning: Drop C (Down one whole step in drop D tuning)
E-mail addy: klayfeather@hotmail.com

Intro: This is a bass and clean electric guitar together.
D|--------|-----------------------|
A|--------|-----------------------|
F|--------|-*-------------------*-|
C|--------|-----------------------|
G|--5--7--|-*-5-2-5-2-5-2--5--7-*-|
C|--------|-----------------------|
[ Tab from: http://www.guitartabs.cc/tabs/b/big_sugar/heart_refuse_to_pound_tab.html ]
This is what the rhythm guitar plays during the verse; roughly
D|-------------------------------|-----------------------------|
A|-------------------------------|--2-2-x-x-x-x--2-x-2-x--2-2--|
F|-*-1-1-x-x-x-x--1-x-1-x--1-1-*-|--2-2-x-x-x-x--2-x-2-x--2-2--|
C|---2-2-x-x-x-x--2-x-2-x--2-2---|--2-2-x-x-x-x--2-x-2-x--2-2--|
G|-*-2-2-x-x-x-x--2-x-2-x--2-2-*-|-----------------------------|
C|-------------------------------|-----------------------------|

Chorus: Much the same as the verse, but again you'll have to get a feel for it.
D|----------------------------------|----------------------------|
A|----------------------------------|--2-2-2-x-x-x-x-x-x-2-2-2-2-|
F|-*-1-1-1-1-1-1-1-1-1-1-1-1-1-1-1*-|--2-2-2-x-x-x-x-x-x-2-2-2-2-|
C|---2-2-2-2-2-2-2-2-2-2-2-2-2-2-2--|--2-2-2-x-x-x-x-x-x-2-2-2-2-|
G|-*-2-2-2-2-2-2-2-2-2-2-2-2-2-2-2*-|----------------------------|
C|----------------------------------|----------------------------|

Solo: I can only figure out part of it L
D|--------------------|
A|------8b------------|
F|-9-9b----7--9---h9--|
C|--------------------|
G|--------------------|
C|--------------------|

Spooky part outro: Repeat this as much as necessary 
D|----------------------|
A|----------------------|
F|----------------------|
C|-------------------2--|
G|----------------------|
C|--0----0--4--5--0--2--|
Comments