Big Sugar - Girl Watcher Chords & Tabs

 

Girl Watcher Chords & Tabs

Big Sugar Chords & Tabs

Version: 1 Type: Tab 0 ratings
1 star 2 stars 3 stars 4 stars 5 stars
comments

Girl Watcher Tab

Artist: Big Sugar
Song: Girl Watcher
Tabber: Samuel Scheideman
Comments: SWEETASS SONG!!!!
Tuning: Down full step
E-mail addy: klayfeather@hotmail.com



Intro:
D-----------------------
A-----------------------
F--2-2-2-2-2-x-2-x-2-2--
C--2-2-2-2-2-x-2-x-2-2--
G--0-0-0-0-0-x-0-x-0-0--
D-----------------------

Verse: Play 1st part 3 times end on 2nd part 
D-----------------------|---3------------
A-----------------------|---3-------3----
F--2-2-2-2-2-x-2-x-2-2--|---0-------2----
C--2-2-2-2-2-x-2-x-2-2--|---0-------0----
G--0-0-0-0-0-x-0-x-0-0--|---2------------
D-----------------------|---3------------

3rd Verse part:
D--------------------------------------------
A--9-9-9-9-9-9-10-9-9----7-7-7-7-7-7-8-7-7---
F--9-9-9-9-9-9-9--9-9----7-7-7-7-7-7-7-7-7---
C--9-9-9-9-9-9-9--9-9----7-7-7-7-7-7-7-7-7---
G--7-7-7-7-7-7-7--7-7----5-5-5-5-5-5-5-5-5---
D--------------------------------------------

[ Tab from: http://www.guitartabs.cc/tabs/b/big_sugar/girl_watcher_tab.html ]
Chorus boogie thing: play twice
                         PM.....
D------------------------------------------------------
A-------------------------------3----------------------
F---------2---------------------2----------5b(7)-r5----
C--2-2----0--5--5--4--2-----0-0-0----------------------
G--0-0-4-----------------------------------------------
D------------------------------------------------------
                         PM.....
D---------------------------------------------
A-------------------------------3-------------
F---------2---------------------2-----0-------
C--2-2----0--5--5--4--2-----0-0-0-----2-------
G--0-0-4------------------------------3-------
D---------------------------------------------
                         PM.....
D-------------------------------2-----------------------------
A-------------------------------3-----------------------------
F---------2---------------------2------5b(7)-r5---7b(9)-r7----
C--2-2----0--5--5--4--2-----0-0-0--------------------------7--
G--0-0-4------------------------------------------------------
D-------------------------------------------------------------


Cool sax Solo: Strum G then C then G, D, C


Outro: This is played with the boogie part. Except there's different fills. Which are right here  

   2:35               2:45               2:55             3:05          
D----------------------------------------------------------------------
A----------------------------------------------------------------------
F--5b(7)-r5-------5b(7)-r5-------5b(7)-r5-------5b(7)-r5--7b(9)-r7-----
C------------------------------------------------------------------7---
G----------------------------------------------------------------------
D----------------------------------------------------------------------

  3:10                      3:15                 3:20
D------------------------------------------------------------
A------------------------------------------------------------
F--7b(9)-r7-7b(9)-----7b9-r7-5--------7b9-r7-5-7b9-r7-5------
C------------------------------7------------------------7----
G------------------------------------------------------------
D------------------------------------------------------------

  2:26      ......excreta, I think everybody can figure it out from here.      
D------------------------------
A--8b-(10)-10-10-10------------
F--------------------------5---
C------------------------------
G------------------------------
D------------------------------
Comments