Big Head Todd And The Monsters - Circle Chords & Tabs

 

Circle Chords & Tabs

Big Head Todd And The Monsters Chords & Tabs

Version: 1 Type: Bass Tab 0 ratings
1 star 2 stars 3 stars 4 stars 5 stars
comments

Circle Bass Tab

Personal note:
Great page....but lets see a little more Big Head Tood and the Monsters!



I'll start it off:


bass line for Circle

E---0 0------------------8-8-8--------------------3----
A--------7--5-5--5-5--7----------7--5-------5-7-3------
D-------------------------------------5-7--------------
G------------------------------------------------------

Bass Solo is roughly the same...But as always a few variations.

[ Tab from: http://www.guitartabs.cc/tabs/b/big_head_todd_and_the_monsters/circle_btab.html ]
Bridge is
E---------------------------------0-------0-----
A--3--3--33-33-3---5-5-55-55-5-5--7---7---7-----
D-----------------------------------------------
G-----------------------------------------------

Hope its close...I'm away from my bass, and got a mean hangover.
Any Questions Comments Flames or Corrections are always accepted.

I figured that I've used the info on this page quite a few times, so
it's time to submit some of my favorites.


Q-en


Comments