Big Fat Snake - Fight For Your Love Chords & Tabs

 

Fight For Your Love Chords & Tabs

Big Fat Snake Chords & Tabs

Version: 1 Type: Tab 0 ratings
1 star 2 stars 3 stars 4 stars 5 stars
comments

Fight For Your Love Tab

it doesn't get any easier :)
[ Tab from: http://www.guitartabs.cc/tabs/b/big_fat_snake/fight_for_your_love_tab.html ]
first part
e|--------------------------------------------|
B|--11b12-9-------7-9----11b12-9-------11-12--|
G|----------11-13-----8b---------11-13--------|
D|--------------------------------------------|
A|--------------------------------------------|
E|--------------------------------------------|
second part
e|--------------------------------------------|
B|--11b12-9-------7-9----11b12-9-------11-12b-|
G|----------11-13-----8----------11-13--------|
D|--------------------------------------------|
A|--------------------------------------------|
E|--------------------------------------------|
Comments