Big D And The Kids Table - Little Bitch Chords & Tabs

 

Little Bitch Chords & Tabs

Big D And The Kids Table Chords & Tabs

Version: 1 Type: Tab

Little Bitch Tab

LITTLE BITCH
By Big D and The Kids Table
Tabbed by Me

Intro and Solo Between Verses:

E---------------------------9x9-9-9-12-12-12-12-14-14-14-14/---------|
B---------------------------9x9-9-9-12-12-12-12-14-14-14-14/---------|
G-----11-11-11p9-11-11br-p9-9x9-9-9----------------------------------|
D-11--11-11-11p9-11-11br-p9------------------------------------------|
A-11-----------------------------------------------------------------|
E-9------------------------------------------------------------------|

Verse:

E-9-x-9-x-9-x-9b----9-x-9-x--9-x-9b----------------------------------|
B-9-x-9-x-9-x-9b----11x-11x--11x-11b---------------------------------|
G-10x-10x-10x-10b---11x-11x--11x-11b---------------------------------|
D--------------------------------------------------------------------|
A--------------------------------------------------------------------|
E--------------------------------------------------------------------|

Solo:
[ Tab from: http://www.guitartabs.cc/tabs/b/big_d_and_the_kids_table/little_bitch_tab.html ]
E--------------------------------------------------------------------|
B-(repeat 4 times)---------------------------------------------------|
G--11b11-11-11r----9h10p9-9-9------9-9-------------------------------|
D--11b11-11-11r-----------9-9-11p9-9-9-11p9h11p9---------------------|
A-----------------------------11-------11p9h11p9---------------------|
E--------------------------------------------------------------------|

E-9-9-9-9-12-9-----------------(repeat 4 times)----------------------|
B-9-9-9-9------12-9---------------11-11p9-9--------------------------|
G-11bbbbr-----------11br9---------11-11p9-9--------------------------|
D-------------------------11/14--------------------------------------|
A--------------------------------------------------------------------|
E--------------------------------------------------------------------|

E----------------------9-12/14-12-14-12-14b-12------------------------|
B-14-12-9-12-9-12-9-12-------------------------14-12h14p12/9h12p9-----|
G----------------------------------------------------------------11-9-|
D---------------------------------------------------------------------|
A---------------------------------------------------------------------|
E---------------------------------------------------------------------|

E-----------9-9-9--9-9-9-9--9-9-9-9--9-9-9-9-------------------------|
B-----------9-9-9--9-9-9-9--9-9-9-9--9-9-9-9-------------------------|
G-9----9-11bbbbbbr11bbbbbbr11bbbbbbr11bbbbbbr-11p9----9-11/----------|
D---11---------------------------------------------11---11/----------|
A--------------------------------------------------------------------|
E--------------------------------------------------------------------|

KEY:
x - Mute string
/ - Slide
b - bend
r - release bend
bbbbbbb - hold bend over chords