Big D And The Kids Table - 51 Gardner Chords & Tabs

 

51 Gardner Chords & Tabs

Big D And The Kids Table Chords & Tabs

Version: 1 Type: Bass Tab 0 ratings
1 star 2 stars 3 stars 4 stars 5 stars
comments

51 Gardner Bass Tab

Bass Tabs:
51 GARDNER - Big D And The Kids Table

Intro   
G-|---------7-5-----|
D-|-----------7-5---|
A-|-1\5----------5-5|
E-|-----3-5-3-------|

Verse
G-|-------------------------------|
D-|-------------------------------| Repeat 4
A-|-5-5-5-3------3-5-5-3-3-2-2-3-3|    Times
E-|--------3-3-3------------------|

Verse cont. after fifth time-faster
G-|------------------------------------|
D-|------------------------------------| Repeat 1
A-|-5-5-5-5-3---------3-5-5-3-3-2-2-3-3|     Time
E-|----------3-3-3-3-3-----------------|

This Is Where It Gets Really Fucked Up....
Main Part
G-|-----------------------4-5-6-7-9-10-11-12-------------------------|
D-|--4-------------4-7-6-5------------------9-10-11-12-10-9----------|Repeat 3 
A-|-5-5--0--2-3-4-5---------------------------------------12-10-9-7-5|   Times
E-|-------3----------------------------------------------------------|
[ Tab from: http://www.guitartabs.cc/tabs/b/big_d_and_the_kids_table/51_gardner_btab.html ]
Verse cont. after fifth time-faster
G-|------------------------------------|
D-|------------------------------------| Repeat 1
A-|-5-5-5-5-3---------3-5-5-3-3-2-2-3-3|       Time
E-|----------3-3-3-3-3-----------------|
    
Main Part
G-|-----------------------4-5-6-7-9-10-11-12-------------------------|
D-|--4-------------4-7-6-5------------------9-10-11-12-10-9----------|Repeat 3 
A-|-5-5--0--2-3-4-5---------------------------------------12-10-9-7-5|   Times
E-|-------3----------------------------------------------------------|

Chord
G-|---------------------|             
D-|---------------------| Repeat 4    
A-|-0-0-3-3---0-0-0-3-3-|    Times
E-|--------3-3---------3|
         
On Fourth Time...
G-|---------------------------------------------|
D-|---------------------------------------------|
A-|-0-0-3-3----0-0-0-3---2--3--2--3--2--3--2--3-|
E-|--------3-3--------3-2--3--2--3--2--3--2--2--|

Last Verse - Same - End Of Song
G-|-----------------------------|
D-|-----------------------------| Repeat 3
A-|-5-5-5-3----3-5-5-3-3-2-2-3-3|    Times
E-|-------3-3-3-----------------|
Comments