Big Country - Harvest Home Chords & Tabs

 

Harvest Home Chords & Tabs

Big Country Chords & Tabs

Version: 1 Type: Tab 0 ratings
1 star 2 stars 3 stars 4 stars 5 stars
comments

Harvest Home Tab

Song: Harvest Home
Artist: Big Country

Standard Tuning

Intro Riff

e ------------------|-------------|--------11-12------|--------------
b -3/9-10-9-12-9-10-|-9-10-9--9---|-9-10-9-------12-9-|-9-10-9-------
g ------------------|-------11--9-|-------------------|--------11-9-9
d ------------------|-------------|-------------------|--------------
a ------------------|-------------|-------------------|--------------
E ------------------|-------------|-------------------|--------------

Verse

e ---------------|---------------
b ---------------|---------------
g ---------------|---------------    Repeat 4 times
d ---------------|---------------
a ---------------|---------------
E -0-0-0-2-0-4-0-|-0-0-0-2-4-0---

Who saw the fences falling...

Bridge

e -------------------------------|------------------
b -9---9-9/12-9---------9-9/12-9-|-9---9-9/12-9-----
g ---9----------11-9-------------|---9----------11-9
d -------------------9-----------|------------------
a -------------------------------|------------------
E -------------------------------|------------------

Just as you sow...

Chorus
[ Tab from: http://www.guitartabs.cc/tabs/b/big_country/harvest_home_tab.html ]
e ---------------------------|---------------------------
b -9-12-9-9-9-9-9-9-9-9-12-9-|-------------------9-12-9--
g ---------------------------|-11-11-11-11-11-11---------
d ---------------------------|---------------------------
a ---------------------------|---------------------------
E ---------------------------|---------------------------

In Harvest Home...

e --------------------|----------------------------------
b -------------9-12-9-|-------------------9-12-9---------
g -9-9-9-9-9-9--------|-11-11-11-11-11-11----------------
d --------------------|----------------------------------
a --------------------|----------------------------------
E --------------------|----------------------------------

e ---------------------------|---------------------------
b -12-9----12-9----12-9------|----9------9------9-9/12-9-
g ------11------11------11---|-11---9-11---9-11----------
d -------------------------9-|---------------------------
a ---------------------------|---------------------------
E ---------------------------|---------------------------

Rest in peace Stu. Your memory will live on.

There's a middle 8 bit that i can't work out 100% so I'll add
it when I know it's perfect.

Any other Big Country fans who find some Big Country tab please
let me know. Any problems with the above tab tell me, or just to
pass on Big Country and Stuart Adamson related info.

Enjoy

spacemonkeyleader@tiscali.com
evil_space_monkey_leader@hotmail.com 
Comments