Big Country - Chance Chords & Tabs

 

Chance Chords & Tabs

Big Country Chords & Tabs

Version: 1 Type: Tab 0 ratings
1 star 2 stars 3 stars 4 stars 5 stars
comments

Chance Tab

   
CHANCE

Introduction Gtr1

E|----------------|----------------|----------------|----------------|
B|----------------|----------------|----------------|----------------|
G|----9-7---------|----9-7---------|----9-7---------|----------------|
D|0-0----0-0--9-7-|0-0-----0-0-9-7-|0-0-----0-0-9-7-|0-0-0-0-0-0-0-0-|
A|----------------|----------------|----------------|----------------|
E|----------------|----------------|----------------|----------------|
(Gtr1 delay set at 270ms throughout)

Verse 1 Gtr1

E|----------------|----------------|----------------|----------------|
B|----------------|----------------|----------------|----------------|
G|----9-7---------|----9-7---------|----9-7---------|----9-7---------|
D|0-0----0-0--9-7-|0-0-----0-0-9-7-|0-0-----0-0-9-7-|0-0-----0-0-9-7-|
A|----------------|----------------|----------------|----------------|
E|----------------|----------------|----------------|----------------|

E|----------------|----------------|----------------|----------- -- -- -|
B|----------------|----------------|----------------|----------- -- -- -|
G|----9-7---------|----9-7---------|----9-7---------|----------- -11-14-|
D|0-0----0-0--9-7-|0-0-----0-0-9-7-|0-0-----0-0-9-7-|0-0-0-0-0-12-- -- -|
A|----------------|----------------|----------------|----------- -- -- -|
E|----------------|----------------|----------------|----------- -- -- -|

Verse 1 Gtr2

  Bm		   A                G                D
E|----------------|----------------|----------------|----------------|
B|----------------|----------------|----------------|----------------|
G|7-7-7-7-7-7-7-7-|6-6-6-6-6-6-6-6-|7-7-7-7-7-7-7-7-|2-2-2-2-2-2-2-2-|
D|9-9-9-9-9-9-9-9-|7-7-7-7-7-7-7-7-|5-5-5-5-5-5-5-5-|0-0-0-0-0-0-0-0-|
A|----------------|----------------|----------------|----------------|
E|----------------|----------------|----------------|----------------|

Repeat the 4 bar section

Solo 1 Gtr1

 (Bm)			     (D)	
E|- - - - - -- -- -- -- -- -|- - - - - -- -- -- -- -- -|
B|- - - - - -- -- -- -- -- -|- - - - - -- -- -- -- -- -|
G|1616161616-14-14-11-- -11-|1414141414-11-- -- -11-14-|
D|- - - - - -- -- -- -12-- -|- - - - - -- -12-12-- -- -|
A|- - - - - -- -- -- -- -- -|- - - - - -- -- -- -- -- -|
E|- - - - - -- -- -- -- -- -|- - - - - -- -- -- -- -- -|

 (F#m)			    (A)
E|- - - - - -- -- -- -- -- -|- - - - - -- -- -- -- -- -|
B|- - - - - -- -- -- -- -- -|- - - - - -- -- -- -- -- -|
G|1616161616-19-16-14-- -14-|1616161616-14-14-16-16-18-|
D|- - - - - -- -- -- -16-- -|- - - - - -- -- -- -- -- -|
A|- - - - - -- -- -- -- -- -|- - - - - -- -- -- -- -- -|
E|- - - - - -- -- -- -- -- -|- - - - - -- -- -- -- -- -|

 (Bm)			    (D)
E|- - - - - -- -- -- -- -- -|- - - - - -- -- -- -- -- -|
B|- - - - - -- -- -- -- -- -|- - - - - -- -- -- -- -- -|
G|1919191919-21-19-18-16-18-|1616161616-14-14-- -11-14-|
D|- - - - - -- -- -- -- -- -|- - - - - -- -- -12-- -- -|
A|- - - - - -- -- -- -- -- -|- - - - - -- -- -- -- -- -|
E|- - - - - -- -- -- -- -- -|- - - - - -- -- -- -- -- -|
 
 (F#m)			    (D)
E|- - - - - -- -- -- -- -- -|- - - - - -- -- -- -- -- -|
B|- - - - - -- -- -- -- -- -|- - - - - -- -- -- -- -- -|
G|1616161616-14-14-11-- -11-|1414141414-11-- -- -- -- -|
D|- - - - - -- -- -- -12-- -|- - - - - -- -12-- -- -- -|
A|- - - - - -- -- -- -- -- -|- - - - - -- -- -- -- -- -|
E|- - - - - -- -- -- -- -- -|- - - - - -- -- -- -- -- -|

Gtr2

  Bm		   D		     F#m	      A
E|7---------------|10---------------|2---------------|5---------------|
B|7---------------|10---------------|2---------------|5---------------|
G|7---------------|11---------------|2---------------|6---------------|
D|9---------------|12---------------|4---------------|7---------------|
A|9---------------|12---------------|4---------------|7---------------|
E|7---------------|10---------------|2---------------|5---------------|

  Bm		   D		     F#m	      D
E|7---------------|10---------------|2---------------|10--------------|
B|7---------------|10---------------|2---------------|10--------------|
G|7---------------|11---------------|2---------------|11--------------|
D|9---------------|12---------------|4---------------|12--------------|
A|9---------------|12---------------|4---------------|12--------------|
E|7---------------|10---------------|2---------------|10--------------|

Verse 2

Gtr1 as Verse1 except last bar:

E|--------------- -|
B|--------------- -|
G|--------------11-|
D|0-0-0-0-0-0-0-0 -|
A|--------------- -|
E|--------------- -|


Gtr2 as Verse 1

Chorus Gtr1
[ Tab from: http://www.guitartabs.cc/tabs/b/big_country/chance_tab.html ]
    (D)				          (A)	
E|- -- -- -- -- -- -- -- - |- - - - - - - -  --  - - |
B|- -- -- -- -- -- -- -- - |- - - - - - - -  --  - - |
G|14-14-14-14-14-11-11-- - |- - - - - - - -  --  1111|
D|0 -0 -0 -0 -0 -0 -0 -14- |14-14-14-14-14-14-14-0 0 |
A|- -- -- -- -- -- -- -- - |0 -0 -0 -0 -0 -0 -0 -- - |
E|- - - - - - - -  --  - - |- - - - - - - -  --  - - |
 

(D)		   (A)	   (G)(1st Time)Repeat 4 bars -(G)(2nd time)		
E|- -- -- -- - - -- - - ---|- -- -- -- -- -- -- --  |- -- -- -- -- -- -- --
B|- -- -- -- - - -- - - ---|- -- -- -- -- -- -- --  |- -- -- -- -- -- -- --
G|11-14-11-- - - -11- - ---|12-12-12-12-12-12-12-11 |12-12-12-12-12-12-12-12
D|0 -0 -0 -141414-- - 14-0-|12-12-12-12-12-12-12-0- |12-12-12-12-12-12-12-12
A|- -- -- -0 0 0 -- - - ---|10-10-10-10-10-10-10-- -|10-10-10-10-10-10-10-10
E|- -- -- -- - - -- - - ---|- -- -- -- -- -- -- -- -|- -- -- -- -- -- -- --

Chorus Gtr2

  D		   A		     D	      A	       G
E|2-2-2-2-2-2-2-2-|0-0-0-0-0-0-0-0-|2-2-2-2-0-0-0-0-|3-3-3-3-3-3-3-3-|
B|3-3-3-3-3-3-3-3-|2-2-2-2-2-2-2-2-|3-3-3-3-2-2-2-2-|3-3-3-3-3-3-3-3-|
G|2-2-2-2-2-2-2-2-|2-2-2-2-2-2-2-2-|2-2-2-2-2-2-2-2-|0-0-0-0-0-0-0-0-|
D|0-0-0-0-0-0-0-0-|2-2-2-2-2-2-2-2-|0-0-0-0-2-2-2-2-|0-0-0-0-0-0-0-0-|
A|----------------|0-0-0-0-0-0-0-0-|--------0-0-0-0-|2-2-2-2-2-2-2-2-|
E|----------------|----------------|----------------|3-3-3-3-3-3-3-3-|

Repeat the 4 bars

Solo2 Gtr1
Use overdrive/distortion, delay (270ms with lots of repeats)and chorus.
  Bm                A                   Bm       G
E|-----------------|-------------------|---------------------|
B|-----------------|-------------------|---------------12-12-|
G|7-----------7-9-9|s11---9---7-9-9-7h9|p7s------------------|
D|-----------------|-------------------|---------------------|
A|-----------------|-------------------|---------------------|
E|-----------------|-------------------|---------------------|

  A                 Bm                  F#m
E|-----------------|-------------------|---------------------|
B|12--10-10s8--7h8p|7h8p7h8p7h8p7------|---------------------|
G|-----------------|---------------7-9-|9s11-----------11-14-|
D|-----------------|-------------------|------------12-------|
A|-----------------|-------------------|---------------------|
E|-----------------|-------------------|---------------------|
Then repeat as per solo 1.

Solo2 Gtr2

E|----------------|----------------|----------------|----------------|
B|----------------|----------------|----------------|----------------|
G|7---7---7---7---|6---6---6---6---|7---7---4---4---|6---6---6---6---|
D|--9---9---9---9-|--7---7---7---7-|--9---9---5---5-|--7---7---7---7-|
A|----------------|----------------|----------------|----------------|
E|----------------|----------------|----------------|----------------|

E|----------------|----------------|
B|----------------|----------------|
G|4---4---4---4---|2---2---2---2---|
D|--5---5---5---5-|--4---4---4---4-|
A|----------------|----------------|
E|----------------|----------------|


Repeat as per Solo1

Verse3 as per Verse2

Chorus and fade to End. On the final chorus use big barre chords.


Key:

S = slide
H = hammer-on
P = pull-off

Alternatively here are the lyrics and easy chords to the song.

Intro :	D

Verse 1
	Bm7			
All the rain came down
      A
On a cold new town 
      G		   D
As he carried you away
	   Bm7
From your father's hand 
	     A
That always seemed like a fist 
         G		  D	
Reaching out to make you pay 

Link  Bm7,  D,  Bm7,  A,  Bm7,  D,  Bm7,  D

Verse 2
He came like a hero from the factory floor
With the sun and moon as gifts
But the only son you ever saw
Where the two he left you with 

Chorus
D  	A	   D	   A       G 
Oh 	lord where did the feeling go?
D	A      D     A       G
Oh 	lord I never felt so low 

Solo
Bm,  A,  Bm,  G A,  G,  F#m

Bm7,  D,  Bm7,  A,  Bm7,  D  Bm7,  D

Verse 3
Now the skirts hang so heavy around your head
That you never knew you where young
Because you played chance with a lifetime's romance
And the price was far too long 

Chorus
Oh lord where did the feeling go?
Oh lord I never felt so low 						(repeat x2)

Oh lord where did the feeling go?
Oh lord I never felt so low 						

Oh lord where did the feeling go?
Oh lord I never felt so low 						(repeat x2)
Comments