Big City Dreams - Head North Turn Left Chords & Tabs

 

Head North Turn Left Chords & Tabs

Big City Dreams Chords & Tabs

Version: 1 Type: Tab 0 ratings
1 star 2 stars 3 stars 4 stars 5 stars
comments

Head North Turn Left Tab

It might sound a little lower than what's on the CD, but Big City Dreams themselves
showed me how to play it so don't worry, it's right.

Tuning:  Open D

This part is finger picked:
D|-----------------------------------------------------------------------------------------------------|
D|-----------------------------------------------------------------------------------------------------|
A|--------3----------3-------------3----------3-----------8----------8-----------8----------8----------|
D|--------3----------3-------------3----------3-----------8----------8-----------8----------8----------|
A|-1--1--------1--1------1----------------------------6-------6--6------0----------------------0-------|
D|------------------------------0--------0--0-------0--------------------------5-------5--5------------|
Repeat that for a while
[ Tab from: http://www.guitartabs.cc/tabs/b/big_city_dreams/head_north_turn_left_tab.html ]
You can use a pick for this part
D|-----------------------------------------------------------------------------------------------------|
D|-----------------------------------------------------------------------------------------------------|
A|---------------0---------------------0--------------------0---------------------0--------------------|
D|---------8----------8----------8---------8-----------8---------8----------8----------8---------------|
A|---6----------------------8--------------------------------------------------------------------------|
D|------------------------------------------------5---------------------5------------------------------|
Repeat that for a while too

D|------------------------------------------------------------------------------------------------------|
D|------------------------------------------------------------------------------------------------------|
A|------------------------------------------------------------------------------------------------------|
D|-----8--8--8--8-----8--8--8--8-----5--5--5--5-----10--10--10--10--------------------------------------|
A|-----6--6--6--6-----5--5--5--5-----3--3--3--3------8---8---8---8--------------------------------------|
D|------------------------------------------------------------------------------------------------------|
Repeat that some too.

That's all of it except for the solo, i think.  i might be missing a little more but whatever.  (:
Comments