Big Bang - Haru Haru Chords & Tabs

 

Big Bang Chords & Tabs

Version: 1 Type: Tab 0 ratings
1 star 2 stars 3 stars 4 stars 5 stars
comments

Haru Haru Tab

Haru Haru by Big Bang...sorry, this is my first time on typing a tab, but i hope
you are able to understand.

Capo 1st  [It sounds much better]

Intro/Verse/Bridge:
e|---1-0----------1-0----------1-0----------------|
B|-------1------------1------------1--------------|
G|-2-------2----2-------0----0--------------------|
D|-----------------------------------3--2-3--2-3--|  [3x]
A|------------------------------------------------|
E|------------------------------------------------|

e|---1-0----------1-0-1-3---1-0-1--|
B|-------1-------------------------|
G|-2-------2----2------------------|  [1x]
D|---------------------------------|
A|---------------------------------|
E|---------------------------------|


Pre-chorus:
e|-5--5-3-5-8-1---1-3-5--5-3-1-0----|
B|-------------------------------1--|
G|----------------------------------|
D|----------------------------------|
A|----------------------------------|
E|----------------------------------|

e|-1-3-5--5-3-5-8-1--1-3-5---5-3-1-0-1--|
B|--------------------------------------|
G|--------------------------------------|
D|--------------------------------------|
A|--------------------------------------|
E|--------------------------------------|

[ Tab from: http://www.guitartabs.cc/tabs/b/big_bang/haru_haru_tab.html ]
Chorus:
e|-------0-1--1-3-1-0-1--------0-1--1-0-1-0-0----------0-1--1-3-1-0-1-5------0-1-1-1-1-0-1-0-0----|
B|-1-1-3-----------------1-1-3----------------3--1-1-3------------------3--3-------------------3--|
G|------------------------------------------------------------------------------------------------|
D|------------------------------------------------------------------------------------------------|
A|------------------------------------------------------------------------------------------------|
E|------------------------------------------------------------------------------------------------|

e|-------0-1-1-0--------------0-1-1-3-1-0-0-1--------0-5-5-3-0-1--1-0--------------1--------------|
B|-1-1-3---------1-3---1-1-3-------------------1-1-3------------------1-3--3-1-------3-1-3--------|
G|-----------------------------------------------------------------------------2-2----------------|
D|------------------------------------------------------------------------------------------------|
A|------------------------------------------------------------------------------------------------|
E|------------------------------------------------------------------------------------------------|

e|-5--5-3-5-8-1--1-3-5---5-3-1-0-1--|
B|----------------------------------|
G|----------------------------------|
D|----------------------------------|
A|----------------------------------|
E|----------------------------------|
Comments