Big And Rich - Live This Life Chords & Tabs

 

Live This Life Chords & Tabs

Big And Rich Chords & Tabs

Version: 1 Type: Chords 1 rating
1 star 2 stars 3 stars 4 stars 5 stars
comments

Live This Life Chords

   
ok first time with this but its right

normal tuning

INTRO     twice through 
e| --------------------------------|
B| --------------------------------|
G| -------------4-------4-------4--|                     
D| ------4----2---2---2---2---2---2|  second time end on 4
A| --2h4--4-0---------------2------|                     2
E| 2----------------0--------------|

Verse

  F#m              A               Bm
Met a man on the street last night
                   A
Said his name was jesus,
  F#m              A               Bm
Met a man on the street, Last night
  F#m            A        Bm
Thought he was crazy till,
                      A
I watched him heal a blind man,
  F#m                A              Bm
Watched him heal a blind man now I see

[ Tab from: http://www.guitartabs.cc/tabs/b/big_and_rich/live_this_life_crd.html ]
Chorus
 F#m          A               Bm                A
I live this life until this life won't let me live here anymore
 F#m         A               Bm
Then I will walk yes I will walk
                 A          Bm       F#m
With patience through that open door
 F#m         A            Bm             A
I have no fears, angels follow me wherever I may go
 F#m         A               Bm                 A        Bm
I live this life until this life won't let me live here anymore

This is the little lick between the 1st chorus and second verse
e| -------------------|
B| -------------------|
G| -------------------|
D| ------4---------4--|
A| --2h4-------2h4---4|
E| 2------------------|

couldnt quite get the solo tabbed but you can figure it if you listen


The Rest is the same as the first verse and chorus...
Hope you can follow it.  I still need to figure out the solo
Comments