Biffy Clyro - The Go-slow Chords & Tabs

 

The Go-slow Chords & Tabs

Biffy Clyro Chords & Tabs

Version: 1 Type: Tab 0 ratings
1 star 2 stars 3 stars 4 stars 5 stars
comments

The Go-slow Tab

---------------------------------------------------------------------
		     Biffy Clyro= The Go-slow
---------------------------------------------------------------------

Guess what?IM BACK AGAIN!sorry ive taken so long to write up some more.
i promised myself i'd write up the entire album for UGO.i jus cudnt b bothered 
to write,neway!here it is.the go-slow( which happens to be the first song of biffys 
i heard). To begin with use the same type of effects as in j.d.i. and it should be 
about rite.bye(tombuttcrunch116@hotmail.com)

(h): harmonic
 x : muting (raise fingers off fret board)
 \ : slide down

intro(not sure about this bit, possibly wrong please say if it is)
e|---------------------------------------------------------------------
b|---------------------------------------------------------------------
g|-----------9-9-9---------9-9-9---------------------------------------
d|---x-x-x-x-101010-0-0-0--101010-0------------------------------------
a|---x-x-x-x-8-8-8--0-0-0--8-8-8--0------------------------------------
D|---x-x-x-x--------0-0-0---------0------------------------------------
w/distorted clean

e|---------------------------------------------------------------------
b|---------------------------------------------------------------------
g|---101010101010-9-9-9-9-9--9-9-9-9-9-----------101010101010-9-9-9-9--
d|---101010101010-1010101010-9-9-9-9-9-0-0-0-0-0-101010101010-10101010-
a|---8-8-8-8-8-8--8-8-8-8-8--7-7-7-7-7-0-0-0-0-0-8-8-8-8-8-8--8-8-8-8--
D|-------------------------------------0-0-0-0-0-----------------------
w/distortion

e|---------------------------------------------------------------------
b|---------------------------------------------------------------------
g|---9--9-9-9-------9-9-9--------101010101010-9-9-9-9-9--9-9-9-9-9-----
d|---10-9-9-9-0-0-0-9-9-9-0-0-0--101010101010-1010101010-9-9-9-9-9--0-0
a|---8--7-7-7-0-0-0-7-7-7-0-0-0--8-8-8-8-8-8--8-8-8-8-8--7-7-7-7-7--0-0
D|------------0-0-0-------0-0-0-------------------------------------0-0
w/distortion

e|---------------------------------------------------------------------
b|---------------------------------------------------------------------
g|---------------------------------------------------------------------
d|---0-0-0---1-1-1-1-1--1-1-1-1-1--1-1-1-1-1--1-1-1-1-1--0-------------
a|---0-0-0---1-1-1-1-1--1-1-1-1-1--1-1-1-1-1--1-1-1-1-1--0-------------
D|---0-0-0---1-1-1-1-1--1-1-1-1-1--1-1-1-1-1--1-1-1-1-1--0-------------
w/distortion

fill

e|---------------------------------------------------------------------
b|-------3------3-----1------1-----------------------------------------
g|-----2--2---2--2--2--2---2---2---------------------------------------
d|---0------0-----0------0---------------------------------------------
a|---------------------------------------------------------------------
D|---------------------------------------------------------------------
w/clean

                                 (h)
e|---------------------------------------------------------------------
b|---------------------------------------------------------------------
g|---------------------------------------------------------------------
d|------------------------------x-7------------------------------------
a|---8-8-8-8-8-8-8-8--5--3--0---x-5------------------------------------
D|---8-8-8-8-8-8-8-8--5--3--0------------------------------------------

pre-verse
e|---------------------------------------------------------------------
b|-------1-------1-----------------------1-------1-------3-------3-----
g|-----2---2---2---2---2-3-2---2-3-2---2---2---2---2---2---2---2---2---
d|---0-------0-------0-------0-------0-------0-------0-------0-------0-
a|---------------------------------------------------------------------
D|---------------------------------------------------------------------
w/clean

e|---------------------------------------------------------------------
b|-------1-------1-----------------------1-------1---------------------
g|-----2---2---2---2---2-3-2---2-3-2---2---2---2---2-------------------
d|---0-------0-------0-------0-------0-------0-------------------------
a|---------------------------------------------------------------------
D|---------------------------------------------------------------------
w/clean

verse(bass only)

g|---------------------------------------------------------------------
d|---------------------------------------------------------------------
a|----------3-3-3--1-1-1--3-3-3----------------------------------------
D|---0-0-0-------------------------------------------------------------

(soz dont know the words)

bridge

e|---------------------------------------------------------------------
b|---------------------------------------------------------------------
g|---------5-5-5-5-5-5-5-5---------9-9-9-9-9-9---------5-5-5-5-5-5-5-5-
d|---0-0-0-5-5-5-5-5-5-5-5--0-0-0---------------0-0-0--5-5-5-5-5-5-5-5-
a|---0-0-0-3-3-3-3-3-3-3-3--0-0-0--7-7-7-7-7-7--0-0-0--3-3-3-3-3-3-3-3-
D|---0-0-0------------------0-0-0---------------0-0-0------------------
w/distortion

              (h)
e|---------------------------------------------------------------------
b|---------------------------------------------------------------------
g|---5-----------------------------------------------------------------
d|---5--0-0--x-7-------------------------------------------------------
a|---3--0-0--x-5-------------------------------------------------------
D|------0-0------------------------------------------------------------
w/distortion

chorus

e|---------------------------------------------------------------------
b|---------------------------------------------------------------------
g|---101010101010-9-9-9-9-9--9-9-9-9-9-----------101010101010-9-9-9-9--
d|---101010101010-1010101010-9-9-9-9-9-0-0-0-0-0-101010101010-10101010-
a|---8-8-8-8-8-8--8-8-8-8-8--7-7-7-7-7-0-0-0-0-0-8-8-8-8-8-8--8-8-8-8--
D|-------------------------------------0-0-0-0-0-----------------------
w/distortion

e|---------------------------------------------------------------------
b|---------------------------------------------------------------------
g|---9--9-9-9-9----------101010101010-9-9-9-9-9--9-9-9-9-9-------------
d|---10-9-9-9-9-0-0-0-0--101010101010-1010101010-9-9-9-9-9--0-0-0-0-0--
a|---8--7-7-7-7-0-0-0-0--8-8-8-8-8-8--8-8-8-8-8--7-7-7-7-7--0-0-0-0-0--
D|--------------0-0-0-0-------------------------------------0-0-0-0-0--
w/distortion
[ Tab from: http://www.guitartabs.cc/tabs/b/biffy_clyro/the_go_slow_tab.html ]
                                                              (h)
e|---------------------------------------------------------------------
b|---------------------------------------------------------------------
g|---------------------------------------------------------------------
d|---1-1-1-1-1-1-1-1--3-3-3-3-3-3-3-3--1-1-1-1-1-1-1-1--0-0--x-7-------
a|---1-1-1-1-1-1-1-1--1-1-1-1-1-1-1-1--1-1-1-1-1-1-1-1--0-0--x-5-------
D|---1-1-1-1-1-1-1-1-------------------1-1-1-1-1-1-1-1--0-0------------
w/distortion

verse

e|---------------------------------------------------------------------
b|-------1-------1-----------------------1-------1-------3-------3-----
g|-----2---2---2---2---2-3-2---2-3-2---2---2---2---2---2---2---2---2---
d|---0-------0-------0-------0-------0-------0-------0-------0-------0-
a|---------------------------------------------------------------------
D|---------------------------------------------------------------------
w/clean

e|---------------------------------------------------------------------
b|-------1-------1-----------------------1-------1---1--1-------1------
g|-----2---2---2---2---2-3-2---2-3-2---2---2---2----------3-2-3---3-2-3
d|---0-------0-------0-------0-------0-------0-------0-----------------
a|---------------------------------------------------------------------
D|---------------------------------------------------------------------
w/clean

e|---------------------------------------------------------------------
b|---1-------1------1--1------1-------1-------1------------------------
g|-----3-2-3---3-2-------3-2-3--3-2-3---3-2-3---3-2--------------------
d|------------------0--------------------------------------------------
a|---------------------------------------------------------------------
D|---------------------------------------------------------------------
w/clean

bridge

e|---------------------------------------------------------------------
b|---------------------------------------------------------------------
g|---------5-5-5-5-5-5-5-5---------9-9-9-9-9-9---------5-5-5-5-5-5-5-5-
d|---0-0-0-5-5-5-5-5-5-5-5--0-0-0---------------0-0-0--5-5-5-5-5-5-5-5-
a|---0-0-0-3-3-3-3-3-3-3-3--0-0-0--7-7-7-7-7-7--0-0-0--3-3-3-3-3-3-3-3-
D|---0-0-0------------------0-0-0---------------0-0-0------------------
w/distortion

              (h)
e|---------------------------------------------------------------------
b|---------------------------------------------------------------------
g|---5-----------------------------------------------------------------
d|---5--0-0--x-7-------------------------------------------------------
a|---3--0-0--x-5-------------------------------------------------------
D|------0-0------------------------------------------------------------
w/distortion

chorus

e|---------------------------------------------------------------------
b|---------------------------------------------------------------------
g|---101010101010-9-9-9-9-9--9-9-9-9-9-----------101010101010-9-9-9-9--
d|---101010101010-1010101010-9-9-9-9-9-0-0-0-0-0-101010101010-10101010-
a|---8-8-8-8-8-8--8-8-8-8-8--7-7-7-7-7-0-0-0-0-0-8-8-8-8-8-8--8-8-8-8--
D|-------------------------------------0-0-0-0-0-----------------------
w/distortion

e|---------------------------------------------------------------------
b|---------------------------------------------------------------------
g|---9--9-9-9-9----------101010101010-9-9-9-9-9--9-9-9-9-9-------------
d|---10-9-9-9-9-0-0-0-0--101010101010-1010101010-9-9-9-9-9--0-0-0-0-0--
a|---8--7-7-7-7-0-0-0-0--8-8-8-8-8-8--8-8-8-8-8--7-7-7-7-7--0-0-0-0-0--
D|--------------0-0-0-0-------------------------------------0-0-0-0-0--
w/distortion

e|---------------------------------------------------------------------
b|---------------------------------------------------------------------
g|---------------------------------------------------------------------
d|---1-1-1-1-1-1-1-1--3-3-3-3-3-3-3-3--1-1-1-1-1-1-1-1--0-0------------
a|---1-1-1-1-1-1-1-1--1-1-1-1-1-1-1-1--1-1-1-1-1-1-1-1--0-0------------
D|---1-1-1-1-1-1-1-1-------------------1-1-1-1-1-1-1-1--0-0------------
w/distortion

fill
e|---------------------------------------------------------------------
b|---------------------------------------------------------------------
g|---5-5-5-5-5-5-5-5-------9-9-9-9-9-9--10101010101010101010-1212121212
d|---5-5-5-5-5-5-5-5-0-0-0---------------------------------------------
a|---3-3-3-3-3-3-3-3-0-0-0-7-7-7-7-7-7--8-8-8-8-8-8-8-8-8-8--1010101010
D|-------------------0-0-0---------------------------------------------
w/distortion

e|---------------------------------------------------------------------
b|---------------------------------------------------------------------
g|---121212--14-14-14--16-16-17-17-16-16-------------------------------
d|---------------------------------------------------------------------
a|---101010--12-12-12--14-14-14-14-14-14-------------------------------
D|---------------------------------------------------------------------
w/distortion

e|---------------------------------------------------------------------
b|---------------------------------------------------------------------
g|---------------------------------------------------------------------
d|---17-17-17-17-\9----------------------------------------------------
a|---15-15-15-15-\7----------------------------------------------------
D|---------------------------------------------------------------------
w/clean distortion

outro
(gtr1)
e|------------------||-------------------------------------------------
b|------------------||-------------------------------------------------
g|-----------------o||-------------------------------------------------
d|---0-0-0--0-0-0--o||-------------(x lots)----------------------------
a|---0-0-0--0-0-0---||-------------------------------------------------
D|---0-0-0--0-0-0---||-------------------------------------------------
w/distortion

(gtr2: ...the go-slow...)
e|---------------------------------------------------------------------
b|---------------------------------------------------------------------
g|---------------------------------------------------------------------
d|---17-17-17-17--x-9-x-9----------------------------------------------
a|---15-15-15-15--x-7-x-7----------------------------------------------
D|---------------------------------------------------------------------
w/clean distortion

=====================================================================
Comments