Biffy Clyro - Pocket Chords & Tabs

 

Pocket Chords & Tabs

Biffy Clyro Chords & Tabs

Version: 1 Type: Bass Tab 0 ratings
1 star 2 stars 3 stars 4 stars 5 stars
comments

Pocket Bass Tab

Intro:
G|---------------|
D|---------------|
A|---------------|
D|---------------|
Verse 1:
G|---------------|
D|---------------|
A|---------------|
D|7-0--4-2-------|x8

Prechorus:
G|---------------|
D|---------------|
A|---2-----------|
D|0-----4---2----|

Instrumental:
G|----------------|
D|----------------|
A|----------------|
D|7-0--4-2--------|x2

Verse 2
G|----------------|
D|----------------|
A|----------------|
D|7-0--4-2--------|x6

Prechorus:
G|----------------|
D|----------------|
A|---2------------|
D|0-----4---2-----|
[ Tab from: http://www.guitartabs.cc/tabs/b/biffy_clyro/pocket_btab.html ]
Chorus:
G|-------------------------------------------------------------|
D|-------------------------------------------------------------|
A|-------------------------------------------------------------|
D|0-7-4-0----0-7-4-2----0-7-4-12-------------------------------|

G|------------|
D|------------|
A|-2-5-7------|
D|------------|

Instrumental:
G|----------------|
D|----------------|
A|----------------|
D|7-0--4-2--------|x4

Prechorus:
G|-----------------|
D|-----------------|
A|-----------------|
D|------4---2------|

Chorus:
G|-------------------------------------------------------------|
D|-------------------------------------------------------------|
A|-------------------------------------------------------------|
D|0-7-4-0----0-7-4-2----0-7-4-12-------------------------------|

G|--------|
D|--------|
A|2--5-7--|
D|--------|

Instrumental:
G|---------------|
D|---------------|
A|---------------|
D|7-0--4-2-------|x4
Comments