Biffy Clyro - My Recovery Injection Chords & Tabs

 

My Recovery Injection Chords & Tabs

Biffy Clyro Chords & Tabs

Version: 1 Type: Tab 0 ratings
1 star 2 stars 3 stars 4 stars 5 stars
comments

My Recovery Injection Tab

   
#-----------------------------------------------------------------------------#
#-- File created with Instab - http://www.pconline.com/~smcarey/instab.html --#
#-----------------------------------------------------------------------------#

Author/Artist: Biffy Clyro
Title: My Recovery Injection
Tabber: Andrew Biles

There's quite a lot of parts to remember for this song, but it's worth it.  Hopefully
most of it is right, there's a couple of parts that I'm not 100% on, but judge for yourself.

*Updated* The solo and a couple of other parts have been updated.  My guitar teacher
has helped with the solo which was greatly appreciated.  He's also provided a couple
of alternate ways of playing parts which I'll update the tab with at a later date.

Drop D

Intro
|---------------------------------------------------|
|---------------------------------------------------|
|-4p0-4p0---4p0-4p0---4p0-4p0-4p0-4p0---4p0-4p0-5/--|
|---------------------------------------------------|
|---------------------------------------------------|
|---------------------------------------------------|

Verse
|-----------------------------------------------------------------------
|-----------------------------3-----------------------------------------
|-4p0-4p0-5/----4p0-4p0-5/----4----4p0-4p0-5/----4p0-4p0-5/-------------
|-----------------------------5--------------------------------8----10--
|-----------------------------6--------------------------------10---10--
|--------------------------------------------------------------8----10--

Break
|------------------------------------------------------------------------------|
|------------------------------------------------------------------------------|
|-4p0-4p0---4p0-4p0---4p0-4p0-4p0-4p0-4p0-4p0-4p0-5/---4p0-4p0---4p0-4p0---4p0-|
|------------------------------------------------------------------------------|
|------------------------------------------------------------------------------|
|------------------------------------------------------------------------------|

----------------------------------------|
----------------------------------------|
-4p0-4p0-4p0-4p0-4p0-5-/4---------------|
----------------------------8------10---|
----------------------------10-----10---|
----------------------------8------10---|

Chorus
|---------------------------------------------------------------------|
|---------------------------------------------------------------------|
|-5-4--5-4--5-4--5--7-7--5-4--5-4--5-4--5--0-0--5-4--5-4--5-4--5--7-7-|
|-0-0--0-0--0-0--0--x-x--0-0--0-0--0-0--0--5-5--0-0--0-0--0-0--0--x-x-|
|-5-5--5-5--5-5--5--7-7--5-5--5-5--5-5--5--5-5--5-5--5-5--5-5--5--7-7-|
|---------------------------------------------------------------------|
[ Tab from: http://www.guitartabs.cc/tabs/b/biffy_clyro/my_recovery_injection_tab.html ]
|---------------------------------|
|-5-6-6-6-6-6-6-6-6-5-5-5-5-5-5-5-|
|-5-5-5-5-5-5-5-5-5-5-5-5-5-3-3-3-|
|-3-3-3-3-3-3-3-3-3-3-3-3-3-3-3-3-|
|---------------------------------|
|---------------------------------|

1:04
|---------------|--------------------|
|-12-----13-----|-13---------11------|
|-12-----12-----|-12---------12------|
|-10-----10-----|-10---------10------|
|-10-----10-----|-10---------10------|
|---------------|--------------------|
             x4

Solo
|-------5-----3p0---------3-0-6-5-------5-----3p0---------3-0---0-
|---------6-------1-----1-----------------6-------1-----1-----2---
|-----------5-------2h3---------------------5-------2h3-----------
|-----0-------------------------------0---------------------------
|---0-------------------------------0-----------------------------
|-0-------------------------------0-------------------------------

-------5-----3p0---------3-0-6-5-------5-----3p0---------3-0---
---------6-------1-----1-----------------6-------1-----1-----2-
-----------5-------2h3---------------------5-------2h3-------3-
-----0-------------------------------0-------------------------
---0-------------------------------0---------------------------
-0-------------------------------0-----------------------------

-5-5-5-5-5-5----o--5-5-5-5-5-5-----------------------
-5-6-6-6-5-6----o--5-6-6-6-5-6---15-----15----17-----
-5-7-7-7-5-7----o--5-7-7-7-5-7------14-----14----14/-
-5-7-7-7-5-7----o--5-7-7-7-5-7-----------------------
-----------------------------------------------------
-----------------------------------------------------
                ^behind nut

-5-5-5-5-5-5-----------------------17/--5-5-5-5-5-5-----------------------------|
-5-6-6-6-5-6----20-----18-17-14-15------5-6-6-6-5-6-----------17----------18-17-|
-5-7-7-7-5-7-------17-------------------5-7-7-7-5-7--------14----------15-------|
-5-7-7-7-5-7----------------------------5-7-7-7-5-7--14-15-------15-17----------|
--------------------------------------------------------------------------------|
--------------------------------------------------------------------------------|

|-------------------------------------------------------|
|-------------------------------------------------------|
|-------------------------------------------------------|
|-10--12-12-12-10-12--0--0--10--12-12-12-10-12--0--0--0-|
|-10--12-12-12-10-12--0--0--10--12-12-12-10-12--0--0--0-|
|-10--12-12-12-10-12--0--0--10--12-12-12-10-12--0--0--0-|

Outro
|-----------------------------------------------------------------|--------------|
|-----------------------------------------------------------------|--------------|
|-----------------------------------------------------------------|--------------|
|-8-----10----3----8----10----5----8----10----3----8----10----5---|-3-5-5-5-3-5\-|
|-10----10----3----8----10----5----10---10----3----8----10----5---|-3-5-5-5-3-5\-|
|-8-----10----3----8----10----5----8----10----3----8----10----5---|-3-5-5-5-3-5\-|
 ^strum these chords 16 times each                                  ^once each

any questions? andrewbiles@hotmail.com
Comments