Biffy Clyro - Man Of His Appauling Posture Chords & Tabs

 

Man Of His Appauling Posture Chords & Tabs

Biffy Clyro Chords & Tabs

Version: 1 Type: Tab 0 ratings
1 star 2 stars 3 stars 4 stars 5 stars
comments

Man Of His Appauling Posture Tab

Band: Biffy clyro
Song: Man Of His Appauling Posture
Alum: Virtigo Of Bliss



e----------------------------------------------------------------------------------------------
B----10-10-10-10-10-10-10-10-10-10-10-10-10-10-10--9-9-9--9--9--9--9--9--9--9--9--9--9--9--9//-
G-----9--9--9--9--9--9--9--9--9--9--9--9--9--9--9--9-9-9--9--9--9--9--9--9--9--9--9--9--9--9//-
D-----7--7--7--7--7--7--7--7--7--7--7--7--7--7--7--7-7-7--7--7--7--7--7--7--7--7--7--7--7--7//-
A----------------------------------------------------------------------------------------------
D----------------------------------------------------------------------------------------------



Main Riff: You get the idea.
e-----8-8-8-8-8-8-8-8-7-7-7-7-7-7-7-7----------------------------------------------------------
B-----8-8-8-8-8-8-8-8-8-8-8-8-8-8-8-8-13-13-13-13-13-13-13-13-12-12-12-12-12-12-12-12----------
G-------------------------------------12-12-12-12-12-12-12-12-12-12-12-12-12-12-12-12----------
D-----7-7-7-7-7-7-7-7-7-7-7-7-7-7-7-7-10-10-10-10-10-10-10-10-10-10-10-10-10-10-10-10----------
A-----7-7-7-7-7-7-7-7-7-7-7-7-7-7-7-7-10-10-10-10-10-10-10-10-10-10-10-10-10-10-10-10----------
D-----7-7-7-7-7-7-7-7-7-7-7-7-7-7-7-7-10-10-10-10-10-10-10-10-10-10-10-10-10-10-10-10----------



Verse: Guitar 1
e------------------------------------------------------------------
B------------------------------------------------------------------
G------------------------------------------------------------------
D------------------------------6------------------------9p7h9/11---
A--7p0-0-7p0-0-7p0-0-7p0-0-7p0---7p0-0-7p0-0-7p0--9p7h9------------
D------------------------------------------------------------------

verse: Guitar 2 (enter at second run through)
e----------------------------------------------
B----------------------------------------------
G------------9---------------------9-----------
D-----7p6h7-----11p9h11-----7p6h7-----11p9h11-- Repeat loads
A--0---------------------0---------------------
D----------------------------------------------



We'll blame it on the girls, we'll blame it on the boys.....
e----------------------------------------------
B----------------------------------------------
G---6---6-6-6-6-6-6-6-6-6-6-6-6-6-6-6-6-6-6-6--
D---4---4-4-4-4-4-4-4-4-4-4-4-4-4-4-4-4-4-4-4--  x2
A---4---4-4-4-4-4-4-4-4-4-4-4-4-4-4-4-4-4-4-4--
D---4---4-4-4-4-4-4-4-4-4-4-4-4-4-4-4-4-4-4-4--


then you try.....
e-------------------------------------------------------------------
B--------------------------------------10--1010--10-10--9--9--9--9--
G---------------------------------------9---9-9---9--9--9--9--9--9--
D---0---0-0-0-0-0-0-0-0-0-0-0-0-0-0-0-0-7---7-7---7--7--7--7--7--7--  x2
A---0---0-0-0-0-0-0-0-0-0-0-0-0-0-0-0-0-7---7-7---7--7--7--7--7--7--
D---0---0-0-0-0-0-0-0-0-0-0-0-0-0-0-0-0-7---7-7---7--7--7--7--7--7--

but in time, then you'll know
e---4-----------------------------------4-----------------------------------------------
B---5-----------------------------------5-------------------------------14---14//-------
G---6-----------------7-----------------6-------------------------------14---14//-------
D---4-----------------5-----------------6-------------0-------------0-------------------
A---4-----------------5-----------------4-------------0-------------0-------------------
D---4-----------------5-------------------------------0-------------0-------------------


Next bit
e-------------------------------------------------------
B-------------------------------------------------------
G--9----------------------------------------------------
D--7----7--9---7----7--9---7----7--9---7--7-7-7-7-7--7--
A--0----0--0--10---10-10---9----9--9---8--8-8-8-8-8--7--
D-------------------------------------------------------
[ Tab from: http://www.guitartabs.cc/tabs/b/biffy_clyro/man_of_his_appauling_posture_tab.html ]
e----------------------------------------------------
B----------------------------------------------------
G--9-------------------------------------------------
D--7----7--9---7----7--9---7----7--9---7--7-7-7-7-7--
A--7----7--7--10---10-10---9----9--9---8--8-8-8-8-8--
D----------------------------------------------------



Second verse is sort of the same but with slightly different second guitar
The starty and stoppy bits i cant really work out


Quiet Bit:
e---------------------------------------------------------------------------------------
B---------------------------------------------------------------------------------------
G---9---------6--------7--------------------9-----------4--------------7/9\7------------
D---6---------5--------4-----------------6-----6-----5-----5--------4-------------------
A---7---------0--------0--------------7-----------0--------------0----------------------
D----------------------0--------------------------------------0-------------------------

e---------------------------------------------------------------------------------------
B---------------------------------------------------------------------------------------
G---9--9---x--13--13--13-----6--6---x--14--14--14----7---------------9------------6-----
D---6--6---x---x---x---x-----5--5---x---x---x---x----4---------------6------------5-----
A---7--7---x--11--11--11-----0--0---x--12--12--12----0---------------7------------0-----
D----------------------------------------------------0----------------------------------




then you try.....
e-------------------------------------------------------------------
B--------------------------------------10--1010--10-10--9--9--9--9--
G---------------------------------------9---9-9---9--9--9--9--9--9--
D---0---0-0-0-0-0-0-0-0-0-0-0-0-0-0-0-0-7---7-7---7--7--7--7--7--7--  x2
A---0---0-0-0-0-0-0-0-0-0-0-0-0-0-0-0-0-7---7-7---7--7--7--7--7--7--
D---0---0-0-0-0-0-0-0-0-0-0-0-0-0-0-0-0-7---7-7---7--7--7--7--7--7--



but in time, then you'll know
e---4-----------------------------------4-----------------------------------------------
B---5-----------------------------------5-------------------------------14---14//-------
G---6-----------------7-----------------6-------------------------------14---14//-------
D---4-----------------5-----------------6-------------0-------------0-------------------
A---4-----------------5-----------------4-------------0-------------0-------------------
D---4-----------------5-------------------------------0-------------0-------------------


e-----------------------------------------------------------------------------
B--------------------------14---14/-------------------------------------------
G--------------------------14---14/-------------------------------------------  si does some
D---7--9/11---0--------0--------------7--9/11---7----9----11---7--9--11----0--  crazy scale
A---7--9/11---0--------0--------------7--9/11---7----9----11---7--9--11----0--  over the open 
D---7--9/11---0--------0--------------7--9/11---7----9----11---7--9--11----0--  chord


e---------------------------------------------------------
B---------------------------------------------------------
G---------------------------------------------------------
D---7-----9-----11---7---9---11---0---------------0-------
A---7-----9-----11---7---9---11---0---------------0-------
D---7-----9-----11---7---9---11---0---------------0-------


e----------------------------------------------------------------------------------
B----------------------------------------------------------------------------------
G-----------------------4----6----8----9----11----13----14----16-------------------
D---2----4----6----7----4----6----8----9----11----13----14----16--0----------0-----
A---2----4----6----7----2----4----6----7-----9----11----12----14--0----------0-----
D---2----4----6----7----------------------------------------------0----------0-----


e-----------------------------10-------
B-----------------------------13b15----
G--------------------------------------
D--------------------------------------
A--------------------------------------
D--------------------------------------


jaggysnake@hotmail.com
Comments