Biffy Clyro - Joy, Discovery, Invention Chords & Tabs

 

Joy, Discovery, Invention Chords & Tabs

Biffy Clyro Chords & Tabs

Version: 2 Type: Tab 0 ratings
1 star 2 stars 3 stars 4 stars 5 stars
comments

Joy, Discovery, Invention Tab

   
-------------------------------------------------------------------------------
		 Joy.Discovery.Invention - Biffy Clyro
-------------------------------------------------------------------------------
Tabbed by: Jay Lee
Email: JayLee1459@hotmail.com

Tuning: Standard E

Verse 1

e|---------------------------------------------------------------------------|
B|---------------------------------------------------------------------------|
G|-------------------------------4---------4---------------------------------|
D|-------9------------9------------5---------5-------------------------------|
A|-----7------------7--------------------3-----------------------------------|
E|---0------------9------------3---------------------------------------------|

Look at slow motion 
Asleep at the door 
Makes to destruction 
Reach for the saws 

Chorous

e|---------------------------------------------------------------------------|
B|---------------------------------------------------------------------------|
G|---------------------------------------------------------------------------|
D|---7/9---7/9----7/11---7---------------------------------------------------|
A|---5/7---5/7----5/ 9---5---------------------------------------------------|
E|---------------------------------------------------------------------------|

Get up get up get over 

e|---------------------------------------------------------------------------|
B|---------------------------------------------------------------------------|
G|---------------------------------------------------------------------------|
D|---12----------------12----------------------------------------------------|
A|---10----------------10----------------------------------------------------|
E|--- 8-----------------0----------------------------------------------------|

Take me to your blackened sky 

(repeat this twice)

Verse 2

(This is exactly the same as verse one just the ending has slightly more)

e|---------------------------------------------- __ extra bit----------------|
B|----------------------------------------------/----------------------------|
G|-------------------------------4---------4------5--------------------------|
D|-------9------------9------------5---------5-------------------------------|
A|-----7------------7--------------------3------3----------------------------|
E|---0------------9------------3---------------------------------------------|

Sick with your wasted 
Dreams when you can 
Find time to console them 
Become what i am 
If you submit to all the hopes you've made 
Down through your heart 

(Chorous)

Bridge (Heavy Part)

e|---------------------------------------------------------------------------|
B|---------------------------------------------------------------------------|
G|--x-x-12-12-x-x-11-11------------------------------------------------------|
D|-------------------------------------clean first time----------------------|
A|--x-x-10-10-x-x- 9- 9------------------------------------------------------|
E|---------------------------------------------------------------------------|
[ Tab from: http://www.guitartabs.cc/tabs/b/biffy_clyro/joy_discovery_invention_tab_ver_2.html ]
e|---------------------------------------------------------------------------|
B|---------------------------------------------------------------------------|
G|---7/9---9-9-----7/9--9-----12-12-12-12-----4/5-5-5------------------------|
D|---7/9---9-9-----7/9--9-----12-12-12-12-----4/5-5-5------------------------|
A|---5/7---7-7-----5/7--7-----10-10-10-10-----2/3-3-3------------------------|
E|---------------------------------------------------------------------------|

Passed away 
I hope you dont mind 
Whats the letter say 
To see us through 

e|---------------------------------------------------------------------------|
B|---------------------------------------------------------------------------|
G|----------------------44444444----99999999---------------------------------|
D|--55555555--44444444--44444444----99999999---------------------------------|
A|--55555555--55555555--22222222----77777777---------------------------------|
E|--33333333--22222222-------------------------------------------------------|

e|---------------------------------------------------------------------------|
B|---------------------------------------------------------------------------|
G|--55555555-99999999-55555555-99999999--------------------------------------|
D|--55555555-99999999-55555555-99999999--------------------------------------|
A|--33333333-77777777-33333333-77777777--------------------------------------|
E|---------------------------------------------------------------------------|

(repeat twice)

If you want it get it 
Go and break my heart 
Take me to your blackened sky 
If you want it get it 
Go and break my heart 
Take me to your blackened sky 

e|---------------------------------------------------------------------------|
B|---------------------------------------------------------------------------|
G|--x-x-12-12-x-x-11-11------------------------------------------------------|
D|-------------------------------------clean first time----------------------|
A|--x-x-10-10-x-x- 9- 9------------------------------------------------------|
E|---------------------------------------------------------------------------|

e|---------------------------------------------------------------------------|
B|---------------------------------------------------------------------------|
G|---7/9---9-9-----7/9--9-----12-12-12-12-----4/5-5-5------------------------|
D|---7/9---9-9-----7/9--9-----12-12-12-12-----4/5-5-5------------------------|
A|---5/7---7-7-----5/7--7-----10-10-10-10-----2/3-3-3------------------------|
E|---------------------------------------------------------------------------|

Outro

e|---------------------------------------------------------------------------|
B|---------------------------------------------------------------------------|
G|---------------------------------------------------------------------------|
D|--12--12--7--9-------12-------12-------12-------12-------12-----12---12----|
A|--10---9--5--7-------10-------10-------10-------10-------10-----10---10----|
E|-----------------8-8----8-8-8----8-0-0----0-0-0----0-8-8----8-8----8--0----|

If you want it get it 
Come and break my heart 
Take me to your blackened sky 

| /  slide up
| \  slide down
| h  hammer-on
| p  pull-off
| ~  vibrato
| +  harmonic
| x  Mute note

big shout out to the girl who recently broke my heart by breaking up with me 
then going out with one of my best friends who's gonna turn 17 b4 she is even
16......matt and louise.....love you both always x x x....bite me
===============================================================================
Comments