Biffy Clyro - Breatheher Chords & Tabs

 

Breatheher Chords & Tabs

Biffy Clyro Chords & Tabs

Version: 1 Type: Tab 0 ratings
1 star 2 stars 3 stars 4 stars 5 stars
comments

Breatheher Tab

   
Artist: Biffy Clyro
Track: Breatheher
Tabbed by: Dave the Bookie (dave_the_bookie@hotmail.com)

Standard Tuning (high to low): E B G D A E

Intro

|----------------------------------------------|
|----------------------------------------------|
|--6-----------------6-----------------6-------|
|--6--4--/--8--\--4--6--4--/--8--\--4--6-------|
|--4--4--/--8--\--4--4--4--/--8--\--4--4-------|
|-----2--/--6--\--2-----2--/--6--\--2----------|

|--x------x---------------------|
|--2---/--6---------------------|
|--x------x---------------------|
|--x------x---------------------|
|--2---/--6---------------------|
|--x------x---------------------|
[ Tab from: http://www.guitartabs.cc/tabs/b/biffy_clyro/breatheher_tab.html ]
|--x----------------------------|
|--2---/------------------------|
|--x------6---------------------|
|--x------6---------------------|
|--2---/--4---------------------|
|--x----------------------------|

Verse ‘If you’ve seen…’

|-----------------------------|
|-----------------------------|
|-----------------------------|
|--4--/--8--/--4--------------|
|--4--/--8--/--4--------------|
|--2--/--6--/--2--------------|

‘I think I’m falling’

|-----------------------------|
|-----------------------------|
|--8--6--4--6--8--------------|
|--8--6--4--6--8--------------|
|--6--4--2--4--6--------------|
|--6--4--2--4--6--------------|

Chorus

|--2--4-----------------------|
|--2--4-----------------------|
|--3--5--6--4-----------------|
|--4--6--6--4-----------------|
|--4--6--4--2-----------------|
|--2--4--4--2-----------------|

Plain and simple!
Comments