Bif Naked - Twitch Chords & Tabs

 

Twitch Chords & Tabs

Bif Naked Chords & Tabs

Version: 1 Type: Tab 0 ratings
1 star 2 stars 3 stars 4 stars 5 stars
comments

Twitch Tab

   
Twitch- Bif Naked
CD: I Bificus
Tabber: Mitchell (Mitchell_J@hotmail.com)
Tuning: Standard
V= vibrato   x= scratch

Intro: (play X2)
e -----------------------------------------------------
B -----------------------------------------------------
G -9---9-7---7-------7--x-x--9---9-7---7----------x-x--
D -9---9-7---7-9-9-9-7--x-x--9---9-7---7-9-9-9-7--x-x--
A -7---7-5---5-9-9-9-5--x-x--7---7-5---5-9-9-9-7--x-x--
E -------------7-7-7---------------------7-7-7-5-------

Verses have lotsa scratches but no real guitar though.

Chorus: (play X2)
e ------------------------------------------------------------------------------
B ------------------------------------------------------------------------------
G -9-9-9-9-9-9-9-9--7-7-7-7-7------------------------7-7-7-7-7------------------
D -9-9-9-9-9-9-9-9--7-7-7-7-7--7-7-7-7-7--5-5-5-5-5--7-7-7-7-7--7-7-7-7-7-7-7-7-
A -7-7-7-7-7-7-7-7--5-5-5-5-5--7-7-7-7-7--5-5-5-5-5--5-5-5-5-5--7-7-7-7-7-7-7-7-
E -----------------------------5-5-5-5-5--3-3-3-3-3-------------5-5-5-5-5-5-5-5-
[ Tab from: http://www.guitartabs.cc/tabs/b/bif_naked/twitch_tab.html ]
After second chorus: "I'm the only one driving him wild"
e -----------------------------------------------
B -----------------------------------------------
G ------------------------------(palm muted)-----
D -4-5-6-7---4-5-6-7---4-5-6-7--7-7-7-7-7-7-7-7--
A -4-5-6-7---4-5-6-7---4-5-6-7--7-7-7-7-7-7-7-7--
E -2-3-4-5---2-3-4-5---2-3-4-5--5-5-5-5-5-5-5-5--

Wah pedal Solo: this is as much as I can figure out, sorry :(
e ---------------------------------------------------------------------
B -12-12-12-12-12-12-12-12-10--------11-11-11-11-11-11-11-11-10--------
G ----------------------------10-12-----------------------------10-12--
D ---------------------------------------------------------------------
A ---------------------------------------------------------------------
E ---------------------------------------------------------------------

e ---------------------------------------------------------------------
B ---------------V----------------V--11-11-11-11-11-11-11-11-10--------
G -12-12-11-11-9-9--12-12-11-11-9-9-----------------------------10-12--
D ---------------------------------------------------------------------
A ---------------------------------------------------------------------
E ---------------------------------------------------------------------

Chords: F#5  G5 G#5  A5  B5  D5  E5
e        x   x   x   x   x   x   x
B        x   x   x   x   x   x   x
G        x   x   x   x   x   7   9
D        4   5   6   7   9   7   9
A        4   5   6   7   9   5   7
E        2   3   4   5   7   x   x

Tab originally from: http://diehardtabs.tripod.com
Comments