Bif Naked - Lucky Chords & Tabs

 

Lucky Chords & Tabs

Bif Naked Chords & Tabs

Version: 1 Type: Tab 0 ratings
1 star 2 stars 3 stars 4 stars 5 stars
comments

Lucky Tab

   
-------------------------------------------------------------------------------
			     LUCKY - Bif Naked
-------------------------------------------------------------------------------

By: Chad (m_fold@hotmail.com)

This is a fairly simple song, but it's actually quite good.
While I am certain that most of this is correct, I only offer it to you the way 
my band and I play it. 

Guitars are in Standard tuning, bass is in Drop D

Bass (Listen for the timing):
G|---------------------------------------------------------------------------|
D|---------------------------------------------------------------------------|
A|---------------------------------------------------------------------------|
D|0---------------------------4----------------------------------------------|

Guitar Intro (Listen for the timing):
e|---------------------------------------------------------------------------|
B|---------------------------------------------------------------------------|
G|---------------------------------------------------------------------------|
D|4--4-----4-----4h6--6-----6-----4--4-----4-----4--4----4------4--4--2------|
A|---------------------------------------------------------------------------|
E|2-----2-----2----------2-----2--2-----2-----2--------2-----2---------------|

The above guitar part is basically repeated in the verses, but about halfway
through, it does this:
e|---------------------------------------------------------------------------|
B|---------------------------------------------------------------------------|
G|6--6-----6-----6--6-----6-----4--4-----4-----2--2-----2--------------------|
D|---------------------------------------------------------------------------| Twice
A|---------------------------------------------------------------------------|
E|2-----2-----2--2-----2-----2--2-----2-----2--2-----2-----2-----------------|
[ Tab from: http://www.guitartabs.cc/tabs/b/bif_naked/lucky_tab.html ]
Chorus (chords): A    - x02220
                 Dsus - xx0230
				 F#m  - 244222
				 Em   - 022x00


A        Dsus     F#m        Em
 I know,  We are, We are the lucky ones
 I know,  We are, We are the lucky ones
 I know,  We are, We are the lucky ones
 
 Dsus
 Dear

(Verse Two)

(Chorus)

Bridge:

Dsus              Em
It's time to say, Thank God for you

Those two chords are repeated throughout the bridge.

     Dsus    Em            Dsus    Em
It's time to let you know, Time to let you know (etc...)

(Chorus)

The chorus progression continues throughout the rest of the song. End on Dsus.

Good luck. If there are any problems with the tab, e-mail me any time at m_fold@hotmail.com




Lyrics:

It was a monday, when my lover told me
"Never pay the Reaper with love only."
What could I say to you, except, 
"I love you."and "I'd give my life for yours."

I KNOW WE ARE...WE ARE THE LUCKY ONES. 
I KNOW WE ARE...WE ARE THE LUCKY ONES. 
I KNOW WE ARE...WE ARE THE LUCKY ONES, DEAR.

Remember the time we made love in the roses?
and you took my picture in all sorts of poses
How could I ever get over you, 
when I'd give my life for yours.

I KNOW WE ARE...WE ARE THE LUCKY ONES. 
I KNOW WE ARE...WE ARE THE LUCKY ONES. 
I KNOW WE ARE...WE ARE THE LUCKY ONES. 
I KNOW WE ARE...WE ARE THE LUCKY ONES, DEAR. 

My dear, 
It's time to say I thank god for you. 
I thank god for you in each and every single way. 
And I know..I know..I know..I know..
it's time to let you know. 
Time to let you know. 
Time to let you know. 
Time to sit here and say:

I KNOW WE ARE-WE ARE THE LUCKY ONES. 
I KNOW WE ARE-WE ARE THE LUCKY ONES. 
I KNOW WE ARE-WE ARE THE LUCKY ONES.
I KNOW WE ARE-WE ARE THE LUCKY ONES, DEAR. 
WE ARE THE LUCKY ONES, DEAR...
Comments