Biesheuvel Merijn - Wilhelmus Chords & Tabs

 

Wilhelmus Chords & Tabs

Biesheuvel Merijn Chords & Tabs

Version: 1 Type: Tab 0 ratings
1 star 2 stars 3 stars 4 stars 5 stars
comments

Wilhelmus Tab

Het Wilhelmus
[ Tab from: http://www.guitartabs.cc/tabs/b/biesheuvel_merijn/wilhelmus_tab.html ]
e-|-----------------|-----------------|-----------------|------0----------|
B-|-------------0--1|-----0-----0--1--|0----------------|---3-----3-------|
G-|----0--0--2------|--2-----2--------|---2--0--2--0--4-|5-----------5--4-|
D-|-0---------------|-----------------|-----------------|-----------------|
A-|-----------------|-----------------|-----------------|-----------------|
E-|-----------------|-----------------|-----------------|-----------------|

e-|-----------------|-----------------|-----------------|-----------------|
B-|-----------------|-----------------|-----------------|-----------------|
G-|-2--4--5--4--2--0|--2-----------2--|4--2--0----------|-----------------|
D-|-----------------|-----0--5-4-5----|---------4--0--2-|4--5-5--4--5-----|
A-|-----------------|-----------------|-----------------|-----------------|
E-|-----------------|-----------------|-----------------|-----------------|

X12
Comments