Bic Runga - Sway Chords & Tabs

 

Sway Chords & Tabs

Bic Runga Chords & Tabs

Version: 1 Type: Bass Tab

Sway Bass Tab

   
Bic Runga  Sway Bass tabs

* yan na ung tabs..per note 8 counts..bhla na kau mgfigure out nung sa iba..
bsta yan ung pattern nung song..enjoy!
Intro:
G----|----|
D----|----|
A-0-4|-0-4|
E----|----|

Verse (2x)
G--------|--------|--------|
D--------|--------|--------|
A-0-4-5-5|-0-4-5-2|---4-5-7|
E--------|--------|-2------|

Chorus:
G----------|----------|
D----------|----------|
A-0-----7-5|-0-----7-5|
E---0-2----|---0-2----|

Verse:
G--------|--------|--------|
D--------|--------|--------|
A-0-4-5-5|-0-4-5-2|---4-5-7|
E--------|--------|-2------|
[ Tab from: http://www.guitartabs.cc/tabs/b/bic_runga/sway_btab.html ]
Chorus: (2x)                    (*once after nung chorus)
G----------|----------|		|----|----|
D----------|----------|		|----|----|
A-0-----7-5|-0-----7-5|		|-4--|-4--|
E---0-2----|---0-2----|		|---0|---0|

Bridge:
G--|--|--------|---------|
D--|--|--------|---------|
A-4|-4|---4-5--|----4-5-7|
E--|--|-2-----0|-2-------|

Chorus: (2x)
G----------|----------|		
D----------|----------|		
A-0-----7-5|-0-----7-5|		
E---0-2----|---0-2----|		

Outro:
G----|----|----|----|
D----|----|----|----|
A-4--|-4--|-4--|-0--|
E---0|---0|---0|----|

hi sa bandmates ko!checkpoint charlie!
angel,mona,lala,kath at ako c in-an!:)
^06^