Beyond - Zhen De Ai Ni Chords & Tabs

 

Zhen De Ai Ni Chords & Tabs

Beyond Chords & Tabs

Version: 1 Type: Tab 0 ratings
1 star 2 stars 3 stars 4 stars 5 stars
comments

Zhen De Ai Ni Tab

   
Band: Beyond  ( http://home.hkstar.com/~wizard/beyond.htm and
http://www.vexen.co.uk/vexen/beyond.html)
Song title: Zhen De Ai Ni
Languange: Cantonese
Tab by: Justin Ong ( radium@privacy.nu )


Intro: Guitar 1(clean) plays C,G,Am,F,C,G7,C (x2)
       Guitar 2(distortion) plays 

E||------------------------|------------------------------|
B||----------------13--15--|--15b---15r-13h15-15------15b-|
G||------------12----------|------------------------------|
D||------------------------|------------------------------|
A||------------------------|------------------------------|
E||------------------------|------------------------------|

----------------------------------|------------------------------------|
--15--13--12h13-12----------13-15-|--15b---15r-13h15-15----15-13-12h13-|
--------------------14------------|------------------------------------|
----------------------------------|------------------------------------|
----------------------------------|------------------------------------|
----------------------------------|------------------------------------|

-------------15-------15--------------|------------------------------|
--13------13----13-15---------13--15--|--15b---15r-13h15-15------15b-|
-------12-----------------12----------|------------------------------|
--------------------------------------|------------------------------|
--------------------------------------|------------------------------|
--------------------------------------|------------------------------|

----------------------------------|------------------------------------|
--15--13--12h13-12----------13-15-|--15b---15r-13h15-15----15-13-12h13-|
--------------------14------------|------------------------------------|
----------------------------------|------------------------------------|
----------------------------------|------------------------------------|
----------------------------------|------------------------------------|

-----------------------------|
--13-------------------------|
--------12----10----9--------|
-----------------------------|
-----------------------------|
-----------------------------|

Verses/Pre-chorus: Guitar 1 plays
 
--------------------------|-----------------------1--|
-----------1-----------0--|-----------1--------1-----|
--------0-----------0-----|--------2--------2--------|
-----2-----------0--------|-----2--------3-----------|
--3-----------------------|--0-----------------------|
--------------3-----------|--------------------------|
                                                                              
--------------------------|-----------------------|--------------------------|
-----------1-----------0--|-----------1-----------|-----------1-----------0--|
--------0-----------0-----|--------0-----0--------|--------0-----------0-----|
-----2-----------0--------|-----2-----------------|-----2-----------0--------|
--3-----------------------|--3--------------------|--3-----------------------|
--------------3-----------|-----------------------|--------------3-----------|
                                                                              
-----------------------1--|--------------------------|-----------------------|
-----------1--------1-----|-----------1-----------0--|-----------1-----------|
--------2--------2--------|--------0-----------0-----|--------0-----0--------|
-----2--------3-----------|-----2-----------0--------|-----2-----------------|
--0-----------------------|--3-----------------------|--3--------------------|
--------------------------|--------------3-----------|-----------------------|

  F           G              F              G             G         
-----------1-----------3--|-----------1--|---------3------3--------|
--------1-----------3-----|--------1-----|-------3---3----3--------|
-----2-----------4--------|-----2--------|-----4-------4--4--------|
--3-----------5-----------|--3-----------|--5-------------5--------|
--------------------------|--------------|----------------5--------|
--------------------------|--------------|----------------3--------|

Chorus: Guitar 1 plays C,G,Am,F,C,G7,C (x2)
        Guitar 2 plays 

------------------|--------------------|--------------------|
------------------|--------------------|--------------------|
------------------|--------------------|--------------------|
------------------|--5-----------------|--------------------|
------------------|--3--------5--------|--7--------3--------|
------------------|-----------3--------|--5--------1--------|
                                                              
--------------------|-------------------|--------------------|
--------------------|-------------------|--------------------|
--------------------|--5----------------|--------------------|
--5-----------------|--5----------------|--5-----------------|
--3--------5--------|--3----------------|--3--------5--------|
-----------3--------|-------------------|-----------3--------|
[ Tab from: http://www.guitartabs.cc/tabs/b/beyond/zhen_de_ai_ni_tab.html ]
                 After the chorus, the intro is played again....
                                                                    
--------------------|--------------------|-------------------------|
--------------------|--------------------|-----------------13--15--|
--------------------|--------------------|--5----------12----------|
--------------------|--5-----------------|--5----------------------|
--7--------3--------|--3--------5--------|--3----------------------|
--5--------1--------|-----------3--------|-------------------------|
                                                                  
------------------------------|----------------------------------|
--15b---15r-13h15-15------15b-|--15--13--12h13-12----------13-15-|
------------------------------|--------------------14------------|
------------------------------|----------------------------------|
------------------------------|----------------------------------|
------------------------------|----------------------------------|
                                                                   
------------------------------------|-----------------------------|
--15b---15r-13h15-15----15-13-12h13-|--13-------------------------|
------------------------------------|--------12----10----9--------|
------------------------------------|-----------------------------|
------------------------------------|-----------------------------|
------------------------------------|-----------------------------|

(Guitar 1 plays C G Am F C G7 C during the solo)
Guitar 2 solo:
 
----------------------------|--12----13----15----13----12-------------------|
------------9/13--13-13-13--|-----13----13----13----13----13-12-13-10-8h10--|
--5-------------------------|-----------------------------------------------|
--5-------------------------|-----------------------------------------------|
--3-------------------------|-----------------------------------------------|
----------------------------|-----------------------------------------------|
                                     
------------------------------------|
--10--------------------------------|
--------12--10--9-------------------|
-------------------12--10--9--10----|
------------------------------------|
------------------------------------|
                                                 
------------------------------------------------|
------------------------------------------------|
-------------12-10-9---------------12-10-9h10h9-|
-----10-9-10---------10----10-9-10--------------|
--10--------------------12----------------------|
------------------------------------------------|
                                                                 
------------------------------------|----------------------------|
------------------------------------|----------------------------|
-------------------------------9----|--12~-----12r-12------10-12-|
--10----------------10-9-12-10---12-|----------------------------|
-----------15/12-10-----------------|----------------------------|
------------------------------------|----------------------------|
                                      
-------------------------------------|
-------------------------------------|
--9h10h9h10h9------------------------|
--------------12-10-9-9--------------|
------------------------10-12-12-----|
-------------------------------------|
                                                  
-------------------------------------------12-13-|
----------------------------------12-13-15-------|
-------------9h10h9----9-10-12-14----------------|
-----9-10-12--------12---------------------------|
--12---------------------------------------------|
-------------------------------------------------|
                                                                   
--12-----------13----15----17----15----|--13------13--15------15--|
----------9/13----13----13----13----13-|--13------13--13------13--|
---------------------------------------|--------------------------|
---------------------------------------|--------------------------|
---------------------------------------|--------------------------|
---------------------------------------|--------------------------|
                                                                                
--13------13--|--15--------15--------|
--13------13--|--13--------13--------|
--------------|----------------------|
--------------|----------------------|
--------------|----------------------|
--------------|----------------------|

Guitar 1 outro: C G Am F C G7 C
Guitar 2 outro:

|-----------------------|------------------------|
|-----------------------|------------------------|
|------------3/5--5--7--|--7b---7r-5h7-7------7b-|
|-----------------------|------------------------|
|-----------------------|------------------------|
|-----------------------|------------------------|

-----------------------------|--------------------------|
-----------------------------|------8-------------------|
--7b-7b-7b-7b-7h5--------5-7-|--7b-----7b-7-----5h4-5h4-|
------------------7----------|--------------------------|
-----------------------------|--------------------------|
-----------------------------|--------------------------|
                                                               
-------------------------------|------------------------------|
----------------------------13-|--15b---15r-13h15-15------15b-|
-------------------4-5-7/12----|------------------------------|
--5h7-5--------5-7-------------|------------------------------|
-------------------------------|------------------------------|
-------------------------------|------------------------------|
                                                                        
----------------------------------|------------------------------------|
--15--13--12h13-12----------13-15-|--15b---15r-13h15-15----15-13-12h13-|
--------------------14------------|------------------------------------|
----------------------------------|------------------------------------|
----------------------------------|------------------------------------|
----------------------------------|------------------------------------|
                                                  
-----------------------------|------------------||
--13-------------------------|------------------||
--------12----10----9--------|------------------||
-----------------------------|------------------||
-----------------------------|------------------||
-----------------------------|------------------||

Hope this tab is correct. Enjoy!
Comments