Between The Buried And Me - Shevanel Take 2 Chords & Tabs

 

Shevanel Take 2 Chords & Tabs

Between The Buried And Me Chords & Tabs

Version: 1 Type: Tab 0 ratings
1 star 2 stars 3 stars 4 stars 5 stars
comments

Shevanel Take 2 Tab

   
Tab legend:
.  - palm mute           /  - slide up to
\  - slide down to       ~  - vibrato
h  - hammer on           b  - Bend
p  - pull off            Suffixes for bend
t  - tap                 f  - full bend    h - half bend
ph - pinched harmonic    q  - quarter bend t - tap bend
*  - see comment         ^  - Hold bend    r release bend
x  - Stuccatto           ~  - vibrato bend
,  - slight palm mute    () - ghost note, sustained note
"  - tremolo note        <> - Trill

Tunning: C# F# B E G# C#
(Clean with slight delay and chorus, I think.)

(0:39)
|-5-3-2-5--5h7-------------------------2-----5\-0h2p0----||
|--------------3h5-3h5-3h5-3h5-3h5-3h5---5-3-------------||
|--------------------------------------------------------||
|--------------------------------------------------------||
|--------------------------------------------------------||
|--------------------------------------------------------||

(0:50)
|-4-5-7-----7----7-5-4--------------6--7---7br---7-11---------------||
|----------------------7-5-4-5--7---------------------7-7h9-\5--7---||
|-------------------------------------------------------------------||
|-------------------------------------------------------------------||
|-------------------------------------------------------------------||
|-------------------------------------------------------------------||

(1:14)
|-6-7---7----7h8-8----8h10-10---\7-5-5h7-7\-3-3--3-5-3-2-5--5h7---||
|-----------------------------------------------------------------||
|-----------------------------------------------------------------||
|-----------------------------------------------------------------||
|-----------------------------------------------------------------||
|-----------------------------------------------------------------||

(1:30)
|-------------------------2-----5\-0h2p0----||
|-3h5-3h5-3h5-3h5-3h5-3h5---5-3-------------||
|-------------------------------------------||
|-------------------------------------------||
|-------------------------------------------||
|-------------------------------------------||
[ Tab from: http://www.guitartabs.cc/tabs/b/between_the_buried_and_me/shevanel_take_2_tab.html ]
(1:39)
|-4-5-7-----7----7-5-4--------------6--7---7br---7-11---------------||
|----------------------7-5-4-5--7---------------------7-7h9-\5--7---||
|-------------------------------------------------------------------||
|-------------------------------------------------------------------||
|-------------------------------------------------------------------||
|-------------------------------------------------------------------||

(2:03)
|-6-7---7----7h8-8----8h10-10---\7-5-5h7-7\-3-3--3-5-3-2-5--5h7---||
|-----------------------------------------------------------------||
|-----------------------------------------------------------------||
|-----------------------------------------------------------------||
|-----------------------------------------------------------------||
|-----------------------------------------------------------------||

(2:19)
|-------------------------2-----5\-0h2p0----||
|-3h5-3h5-3h5-3h5-3h5-3h5---5-3-------------||
|-------------------------------------------||
|-------------------------------------------||
|-------------------------------------------||
|-------------------------------------------||

(2:27)
|-4-5-7-----7----7-5-4--------------6--7---7br---7-11---------------||
|----------------------7-5-4-5--7---------------------7-7h9-\5--7---||
|-------------------------------------------------------------------||
|-------------------------------------------------------------------||
|-------------------------------------------------------------------||
|-------------------------------------------------------------------||

(2:51)
|-6-7---7----7h8-8----8h10-10---\7-5-5h7-7\-3-3--3-5-3-2-5--5h7---||
|-----------------------------------------------------------------||
|-----------------------------------------------------------------||
|-----------------------------------------------------------------||
|-----------------------------------------------------------------||
|-----------------------------------------------------------------||
 (Gradually starts to fade out.................................

(3:01)
|-------------------------2-----5\-0h2p0----||
|-3h5-3h5-3h5-3h5-3h5-3h5---5-3-------------||
|-------------------------------------------||
|-------------------------------------------||
|-------------------------------------------||
|-------------------------------------------||
 .......................................)
Comments